Cifra Club

Aprenda

Original Prankster

The Offspring

Tab de baixo: Versão 2
G|----------------99999999-
D|---5--5555555---99999999-
A|---5--5555555---77777777-
E|---3--3333333------------

G|-----------------------------
D|-5--5555555------------------
A|-5--5555555-------22222222---
E|-3--3333333-------00000000---     

G|----5--9--8--7---77--5--7--5
D|-2--5--9--8--7---77--5--7--5
A|-0--3---7-6--5---55--3--5--3
E|----------------------------

G|--------7-7----12-12
D|--7-7---7-7----12-12
A|--7-7---5-5----10-10
E|--5-5---------------   

G|---------7-7---12-12-12-12-12-12-12--7--12--7---
D|--7-7----7-7---12-12-12-12-12-12-12--7--12--7---
A|--7-7----5-5---10-10-10-10-10-10-10--5--10--5
E|--5-5-------------------------------------------   

G|----------
D|--5555--6-
A|--5555--6-
E|--3333--4-

G|--12-12-12-12--13--14-
D|--12-12-12-12--13--14-
A|--10-10-10-10--11--12-
E|----------------------
Composição de Dexter Holland / Ron Welty
Colaboração e revisão:
  • reinaldo dias
70 exibições

0 comentários

Ver todos os comentários

Conseguiu tocar?

0 Tocaram 0 Ainda não

Grave um vídeo tocando Original Prankster e nos envie!

00:00 / 00:00
outros vídeos desta música
repetir qualidade Automático
Outros vídeos desta música
00:00 / 00:00
Automático

Cifra Club Pro

Aproveite o Cifra Club com benefícios exclusivos e sem anúncios
Cifra Club Pro
Aproveite o Cifra Club com benefícios exclusivos e sem anúncios
OK