Cifra Club

Trust In You

The Offspring

Cifra: Principal (violão e guitarra)
Tom: D
(Precisa de distorcao)
Intro
|-----------------------------------------------------------------------------|
|-----------------------------------------------------------------------------|
|--10-------------------------------------------------------------------------|
|--10--deixa soar ------------------------------------------------------------|
|--8--------------------------------------------------------------------------|
|-----------------------------------------------------------------------------|


ai comeca a musica:

|---------------------------------------------------------------------------|
|---------------------------------------------------------------------------|(2x)
|--10-10-10-10-------------8-8-8-8------------------------------------------|
|--10-10-10-10--5-6-6-6-6--8-8-8-8--8-10-10-10-10---------------------------|
|--8--8--8--8---5-6-6-6-6--6-6-6-6--8-10-10-10-10---------------------------|
|---------------3-4-4-4-4-----------6-8--8--8--8----------------------------|

DEPOIS A MESMA COISA 2 VEZES,MAIS SO QUE ABAFADO

refrao:

(esse primeiro riff eu coloquei foi no ritmo da musica,os outros que eu vo coloca vao ser so a primeira nota,mais  o ritmo e igual o do primeiro riff)

|------(primeiro riff)--------------------|-----|----|------------------------|
|-----------------------------------------|-----|----|------------------------|
|---10-10---10-10-10--10-10-10---10-10-10-|--6--|----|--8---------------------|(2x)
|---10-10---10-10-10--10-10-10---10-10-10-|--6--|-6--|--8---------------------|
|---8--8----8--8--8---8--8--8----8--8--8--|--4--|-6--|--6---------------------|
|-----------------------------------------|-----|-4--|------------------------|


|---------------------------------------------------------------------------------|
|---------------------------------------------------------------------------------|(2x)
|---------------------------------------------------------------------------------|    
|--3----3-3-3-3---6-6-6-6---------------------------------------------------------|
|--3----3-3-3-3---6-6-6-6---------------------------------------------------------|
|--1----1-1-1-1---4-4-4-4---------------------------------------------------------|


|----------------------------------------------------------------------------|
|----------------------------------------------------------------------------|
|------------------3--3--3---------------------------------------------------|
|--3----3-3-3-3----3--3--3---------------------------------------------------|
|--3----3-3-3-3----1--1--1---------------------------------------------------|
|--1----1-1-1-1--------------------------------------------------------------|


|---------------------------------------------------------------------------|
|---------------------------------------------------------------------------|
|-----------------6--5--6---8--8--10-10-8--8--10-10-------------------------|
|--3----3-3-3-3---6--5--6---8--8--10-10-8--8--10-10-------------------------|
|--3----3-3-3-3---4--3--4---6--6--8--8--6--6--8--8--------------------------|
|--1----1-1-1-1-------------------------------------------------------------|



(o refrao é ate aqui ,ai comeca de novo )



|---------------------------------------------------------------------------|
|---------------------------------------------------------------------------|(2x)
|--10-10-10-10-------------8-8-8-8------------------------------------------|
|--10-10-10-10--5-6-6-6-6--8-8-8-8--8-10-10-10-10---------------------------|
|--8--8--8--8---5-6-6-6-6--6-6-6-6--8-10-10-10-10---------------------------|
|---------------3-4-4-4-4-----------6-8--8--8--8----------------------------|

DEPOIS A MESMA COISA 2 VEZES,MAIS SO QUE ABAFADO

refrao:

|------(primeiro riff)--------------------|-----|----|-------------------------|
|-----------------------------------------|-----|----|-------------------------|
|---10-10---10-10-10--10-10-10---10-10-10-|--6--|----|--8----------------------|(2x)
|---10-10---10-10-10--10-10-10---10-10-10-|--6--|-6--|--8----------------------|
|---8--8----8--8--8---8--8--8----8--8--8--|--4--|-6--|--6----------------------|
|-----------------------------------------|-----|-4--|-------------------------|


|---------------------------------------------------------------------------------|
|---------------------------------------------------------------------------------|(2x)
|---------------------------------------------------------------------------------|    
|--3----3-3-3-3---6-6-6-6---------------------------------------------------------|
|--3----3-3-3-3---6-6-6-6---------------------------------------------------------|
|--1----1-1-1-1---4-4-4-4---------------------------------------------------------|


|----------------------------------------------------------------------------|
|----------------------------------------------------------------------------|
|------------------3--3--3---------------------------------------------------|
|--3----3-3-3-3----3--3--3---------------------------------------------------|
|--3----3-3-3-3----1--1--1---------------------------------------------------|
|--1----1-1-1-1--------------------------------------------------------------|


|---------------------------------------------------------------------------|
|---------------------------------------------------------------------------|
|-----------------6--5--6---8--8--10-10-8--8--10-10-------------------------|
|--3----3-3-3-3---6--5--6---8--8--10-10-8--8--10-10-------------------------|
|--3----3-3-3-3---4--3--4---6--6--8--8--6--6--8--8--------------------------|
|--1----1-1-1-1-------------------------------------------------------------|

(ai toca um contra-baixo e comeca o solo)

SOLO:(essa setinha  --> significa que vc tem que escorregar o dedo ate a outra casa)

|-----------------------------------------------------------------------------|
|-------------------------------1--2--1--2---4--2---1-------------------------|
|------------------6  ---> 5 ---------------------------3---1-----------------|
|--------------6--------------------------------------------------------------|(4x)
|--6 ---> 8 ------------------------------------------------------------------|
|-----------------------------------------------------------------------------|

                                                          (esse 15 aqui em parenteses e com bend)
|-----------------------------------------------------------------------------------------------|
|-----------------------11------------------------11--------------------------------------------|
|---13-----13--12---13-------13------13---12--13-----13----13---13---13---17---17--(15)--13--12-|
|-------10-----------------------11---------------------10---10---11---11----13--13-------------|
|-----------------------------------------------------------------------------------------------|
|-----------------------------------------------------------------------------------------------|

refrao de novo e a musica acaba!
exibições 3.433
Acordes para:
    Composição: The Offspring Colaboração e revisão:
    • igor hudson

    0 comentários

    mostrar mais comentários

    Conseguiu tocar?

    0 tocaram 0 ainda não

    Grave um vídeo tocando Trust In You e mande pra gente!

    00:00 / 00:00
    outros vídeos desta música
    repetir qualidade Automático
    Outros vídeos desta música
    00:00 / 00:00
    Automático
    OK