Cifra Club

Aprenda

Walla Walla

The Offspring

Cifra: Principal (violão e guitarra)
tom: C
Tom;F

Intro:

  Guitarra1: Base do solo incial
        
             F C G C F C G C C C
Guitarra2:solo inicial
E|--------------------------------------------------
B|--------------------------------------------------
G|--------------------------------------------------
D|--3-3-3-3-3-2-0-----------------------------------
A|----------------3-3-3-3-3-2-0----------0-2-3-3----
E|------------------------------3-3-3-3-3-----------

E|--------------------------------------------------
B|--------------------------------------------------
G|--------------------------------------------------
D|-------0-2-3-3-3-3-5-3-2-0------------------------
A|--3-3-3-------------------3-3-3-3-3-2-0-----------
E|----------------------------------------3-3-------

E|--------------------------------------------------
B|--------------------------------------------------
G|--------------------------------------------------
D|--------------------------------------------------
A|-------0-2-3-3-3----------------------------------
E|--3-3-3-------------------------------------------

Os Verso só fica no baixo
baixo:
Versos
G|------------------------------------------
D|-3-3-3-3-3--------------------------------
A|-----------3-3-3-3-3-----------3-3-3-3-3--
E|---------------------3-3-3-3-3------------


Chorus ou Refrao
            OBS: Preste atecao no refrão escute a musica para pegar as palhetadas
 D            
 Hey, in Walla
                       E7,F8
I'll see you in Walla Walla
F8
Slap on the wrist? Well, not this time
  C
Hey, in Walla
                            G
I'll see you in Walla Walla
G
Folsom prison is the destination
D
Hey, in Walla
                          E7,F8
I'll see you in Walla Walla
 F8
Slap on the wrist? Well, not this time
C                                             G
In the scheme of life, we're all just brothers
G
Rehabilitate with all the others

Repet :solo inicial

Verso:
Refrao:


A letra pra ficar mais facil tocar

verso
Goodbye my friend, you've messed up again
You're going to prison, you're off to the pen
You've gotten off easy so many times
But I guess no one told you how to get a life 
The judge wasn't lenient like he was before
You got three to five and a kick out the door
The public defender really did try
Too little, too late, you didn't get a life 

refrão
Hey, in Walla
I'll see you in Walla Walla
Slap on the wrist? Well, not this time
Hey, in Walla
I'll see you in Walla Walla
Folsom prison is the destination
Hey, in Walla
I'll see you in Walla Walla
Slap on the wrist? Well, not this time
In the scheme of life, we're all just brothers
Rehabilitate with all the others
Well, I'll see ya 

Verso
That car looked so tempting, so easy to drive
Just like that apartment that you burglarized
You started to run, but didn't get far
Cause under your arm was a VCR 

Ho ho, not this time my friend
You'll be in lockdown by ten
I'm afraid you can't talk your way out of this one, son
Now four walls are your 24-hour-a-day, constant companions. 

Refrao
Hey, in Walla
I'll see you in Walla Walla
Slap on the wrist? Well, not this time
Hey, in Walla
I'll see you in Walla Walla
Folsom prison is the destination
Hey, in Walla
I'll see you in Walla Walla
Slap on the wrist? Well, not this time
In the scheme of life, we're all just brothers
Rehabilitate with all the others
Well, I'll see ya 

Have a nice life 
Composição de The Offspring
Colaboração e revisão:
  • Flávio Henriques
  • Matheus M.
18.347 exibições
    • ½ Tom
    • A
    • Bb
    • B
    • C
    • Db
    • D
    • Eb
    • E
    • F
    • F#
    • G
    • Ab
  • Adicionar à lista

    0 comentários

    Ver todos os comentários

    Conseguiu tocar?

    0 Tocaram 0 Ainda não

    Grave um vídeo tocando Walla Walla e nos envie!

    00:00 / 00:00
    outros vídeos desta música
    repetir qualidade Automático
    Outros vídeos desta música
    00:00 / 00:00
    Automático

    Cifra Club Pro

    Aproveite o Cifra Club com benefícios exclusivos e sem anúncios
    Cifra Club Pro
    Aproveite o Cifra Club com benefícios exclusivos e sem anúncios
    OK