Cifra Club

Aprenda

Want You Bad

The Offspring

Cifra: Principal (violão e guitarra)
tom: A
pm - Palm Mute
/ \ - Slide
hr - Harmônica
: - Let Ring
x - Scratch
~ - Vibrato

Intro:

Riff 1: (4x)
e|-----------------------|
B|-----------------------|
G|-9-9-9-----------6-6-4-|
D|-9-9-9-9-9-9-7-7-6-6-4-|
A|-7-7-7-9-9-9-7-7-4-4-2-|
E|-------7-7-7-5-5-------|

Riff 2:
  pm________________________|
e|---------------------------|
B|---------------------------|
G|-9-9-9-9-9-9-9-9-9-9-9-9-9-|
D|-9-9-9-9-9-9-9-9-9-9-9-9-9-|
A|-7-7-7-7-7-7-7-7-7-7-7-7-7-|
E|---------------------------|

Verso 1:
  pm_______________________ pm________________________| 
e|------------------------------------------------------|
B|------------------------------------------------------|
G|-9-9-9-9-9-9-9-9-9-9-9-9-9\6-6-6-6-6-6-6-6-6-6-6-6-6\-|
D|-9-9-9-9-9-9-9-9-9-9-9-9-9\6-6-6-6-6-6-6-6-6-6-6-6-6\-|
A|-7-7-7-7-7-7-7-7-7-7-7-7-7\4-4-4-4-4-4-4-4-4-4-4-4-4\-|
E|------------------------------------------------------|

   pm________________________|
e|-------------------------------------|
B|-------------------------------------|
G|-\4-4-4-4-4-4-4-4-4-4-4-4-4----------|
D|-\4-4-4-4-4-4-4-4-4-4-4-4-4--7-6-7-9-|
A|-\2-2-2-2-2-2-2-2-2-2-2-2-2--7-6-7-9-|
E|-----------------------------5-4-5-7-|
If you could only read my mind
You would know that things between us, Ain't right
I know your arms are open wide
But you're a little on the straight side, I can't lie

Pré-Refrão: 
e|-------------------------------------------------------------------------------| 
B|-------------------------------------------------------------------------------| 
G|---------------------6-6-6-6-6-9-9-9-9-9---------------------6-6-6-6-6-4-x-x-x-| 
D|-7-7-7-7-7-9-9-9-9-9-6-6-6-6-6-9-9-9-9-9-7-7-7-7-7-9-9-9-9-9-6-6-6-6-6-4-x-x-x-| 
A|-7-7-7-7-7-9-9-9-9-9-4-4-4-4-4-7-7-7-7-7-7-7-7-7-7-9-9-9-9-9-4-4-4-4-4-2-x-x-x-| 
E|-5-5-5-5-5-7-7-7-7-7---------------------5-5-5-5-5-7-7-7-7-7-------------------| 
Your one vice
Is you're too nice
Come around now can't you see

Refrão (2x):
e|------------------------------------------------------|
B|------------------------------------------------------|
G|-9-9-9-9-9-9-9-9-9-9-9-9-9\6-6-6-6-6-6-6-6-6-6-6-6-6\-|
D|-9-9-9-9-9-9-9-9-9-9-9-9-9\6-6-6-6-6-6-6-6-6-6-6-6-6\-|
A|-7-7-7-7-7-7-7-7-7-7-7-7-7\4-4-4-4-4-4-4-4-4-4-4-4-4\-|
E|------------------------------------------------------|

e|-------------------------------------|
B|-------------------------------------|
G|-\4-4-4-4-4-4-4-4-4-4-4-4-4----------|
D|-\4-4-4-4-4-4-4-4-4-4-4-4-4--7-6-7-9-|
A|-\2-2-2-2-2-2-2-2-2-2-2-2-2--7-6-7-9-|
E|-----------------------------5-4-5-7-|
I want you 
All tattooed
I want you bad 

Complete me
Mistreat me
Want you to be bad, bad, bad, bad, bad

(Repete Riff 2)

Verso 2:
  pm_______________________ pm________________________| 
e|------------------------------------------------------|
B|------------------------------------------------------|
G|-9-9-9-9-9-9-9-9-9-9-9-9-9\6-6-6-6-6-6-6-6-6-6-6-6-6\-|
D|-9-9-9-9-9-9-9-9-9-9-9-9-9\6-6-6-6-6-6-6-6-6-6-6-6-6\-|
A|-7-7-7-7-7-7-7-7-7-7-7-7-7\4-4-4-4-4-4-4-4-4-4-4-4-4\-|
E|------------------------------------------------------|

   pm________________________|
e|-------------------------------------|
B|-------------------------------------|
G|-\4-4-4-4-4-4-4-4-4-4-4-4-4----------|
D|-\4-4-4-4-4-4-4-4-4-4-4-4-4--7-6-7-9-|
A|-\2-2-2-2-2-2-2-2-2-2-2-2-2--7-6-7-9-|
E|-----------------------------5-4-5-7-|
If you could only read my mind
You would know that I've been waiting, So long
For someone almost like you
But with attitude, I'm waiting, So come on

Pré-Refrão: 
e|-------------------------------------------------------------------------------|
B|-------------------------------------------------------------------------------|
G|---------------------6-6-6-6-6-9-9-9-9-9---------------------6-6-6-6-6-4-x-x-x-|
D|-7-7-7-7-7-9-9-9-9-9-6-6-6-6-6-9-9-9-9-9-7-7-7-7-7-9-9-9-9-9-6-6-6-6-6-4-x-x-x-|
A|-7-7-7-7-7-9-9-9-9-9-4-4-4-4-4-7-7-7-7-7-7-7-7-7-7-9-9-9-9-9-4-4-4-4-4-2-x-x-x-|
E|-5-5-5-5-5-7-7-7-7-7---------------------5-5-5-5-5-7-7-7-7-7-------------------|
Get out of clothes time
Grow out those highlights
Come around now can't you see

Refrão (2x):
e|------------------------------------------------------|
B|------------------------------------------------------|
G|-9-9-9-9-9-9-9-9-9-9-9-9-9\6-6-6-6-6-6-6-6-6-6-6-6-6\-|
D|-9-9-9-9-9-9-9-9-9-9-9-9-9\6-6-6-6-6-6-6-6-6-6-6-6-6\-|
A|-7-7-7-7-7-7-7-7-7-7-7-7-7\4-4-4-4-4-4-4-4-4-4-4-4-4\-|
E|------------------------------------------------------|

e|-------------------------------------|
B|-------------------------------------|
G|-\4-4-4-4-4-4-4-4-4-4-4-4-4----------|
D|-\4-4-4-4-4-4-4-4-4-4-4-4-4--7-6-7-9-|
A|-\2-2-2-2-2-2-2-2-2-2-2-2-2--7-6-7-9-|
E|-----------------------------5-4-5-7-|
I want you
In a vinyl suit
I want you bad 

Complicated
X-rated
I want you bad, bad, bad, bad, bad...

(Riff 1)
Bad...

Ponte: (Limpa)
e|------7hr---------7hr-----------------------------------------| 
B|-----------7hr------------------------------------------------| 
G|-4:-------------------4:--------9:---4:---4:--------9:---4:---| 
D|-4:-------------------4:---7:---9:---4:---4:---7:---9:---4:---| 
A|-2:-------------------2:---7:---7:---2:---2:---7:---7:---2:---| 
E|---------------------------5:------------------5:-------------| 
Don't get me wrong
I know you're only being good
But that's what's wrong
I guess I just misunderstood

Solo:
e|----------------------------------------------------------------------------------------|
B|----------------------------------------------------------------------------------------|
G|-8-8-8-8-8-8-8-8-8-8-8-6-6-6-6-6-6-6-6-6-4-4-4-4-4-9-9-9-8-8-8-8-8-8-8-6-6-6-6-6-9-9-9--|
D|-x-x-x-x-x-x-x-x-x-x-x-x-x-x-x-x-x-x-x-x-x-x-x-x-x-x-x-x-x-x-x-x-x-x-x-x-x-x-x-x-x-x-x-x|
A|-6-6-6-6-6-6-6-6-6-6-4-4-4-4-4-4-4-4-4-4-2-2-2-2-2-7-7-7-6-6-6-6-6-6-6-4-4-4-4-4-7-7-7--|
E|----------------------------------------------------------------------------------------|

e|--------------------------------------------|
B|--------------------------------------------|
G|--11-11-11-13-13-13-16-16-16-----------------------|
D|---x-x-x-x--x--x--x--x--x--x-------------------|
A|---9-9-9-9-11-11-11-14-14-14----------------------------------|
E|--------------------------------------------|

Refrão (3x):
e|------------------------------------------------------|
B|------------------------------------------------------|
G|-9-9-9-9-9-9-9-9-9-9-9-9-9\6-6-6-6-6-6-6-6-6-6-6-6-6\-|
D|-9-9-9-9-9-9-9-9-9-9-9-9-9\6-6-6-6-6-6-6-6-6-6-6-6-6\-|
A|-7-7-7-7-7-7-7-7-7-7-7-7-7\4-4-4-4-4-4-4-4-4-4-4-4-4\-|
E|------------------------------------------------------|

e|-------------------------------------|
B|-------------------------------------|
G|-\4-4-4-4-4-4-4-4-4-4-4-4-4----------|
D|-\4-4-4-4-4-4-4-4-4-4-4-4-4--7-6-7-9-|
A|-\2-2-2-2-2-2-2-2-2-2-2-2-2--7-6-7-9-|
E|-----------------------------5-4-5-7-|
I want you
All tattooed
I want you bad 

Complicated
X- rated
I want you bad 

I mean it
I need it
I want you bad... bad... bad... bad... bad

Pra terminar faça o isso:
e|--------------------------------------------------------------------------|
B|--------------------------------------------------------------------------|
G|-9-9-9-----------6-6-4--9-9-9-----------6-6-4--9-9-9-----------6-6-4--9~~-|
D|-9-9-9-9-9-9-7-7-6-6-4--9-9-9-9-9-9-7-7-6-6-4--9-9-9-9-9-9-7-7-6-6-4--9~~-|
A|-7-7-7-9-9-9-7-7-4-4-2--7-7-7-9-9-9-7-7-4-4-2--7-7-7-9-9-9-7-7-4-4-2--7~~-|
E|-------7-7-7-5-5--------------7-7-7-5-5--------------7-7-7-5-5------------|
Composição de Dexter Holland / Ron Welty
Colaboração e revisão:
  • Diego Silva
  • José Gonçales
113.731 exibições
    • ½ Tom
    • A
    • Bb
    • B
    • C
    • Db
    • D
    • Eb
    • E
    • F
    • F#
    • G
    • Ab
  • Adicionar à lista

    0 comentários

    Ver todos os comentários

    Conseguiu tocar?

    11 Tocaram 0 Ainda não

    Grave um vídeo tocando Want You Bad e nos envie!

    00:00 / 00:00
    outros vídeos desta música
    repetir qualidade Automático
    Outros vídeos desta música
    00:00 / 00:00
    Automático

    Cifra Club Pro

    Aproveite o Cifra Club com benefícios exclusivos e sem anúncios
    Cifra Club Pro
    Aproveite o Cifra Club com benefícios exclusivos e sem anúncios
    OK