Cifra Club

Descanso

Oficina G3

Cifra: Principal
exibições 156.999
Tom: G
[Afinação] DADGAD

[Intro]


D|------------------------------------|
A|--5---5---5----5----5---5-----------|
D|----0---0----0----0---0-------------|
G|------------------------------------|
A|------------------------------------|
D|------------------------------------|


D|------------------------------------|
A|--5-----------5----5---5---5---5----|
D|-----------4-----0---0---0---0------|
G|---------0--------------------------|
A|------0-----------------------------|
D|------------------------------------|


D|------------------------------------|
A|--5---5---5----5----5---5-----------|
D|----0---0----0----0---0-------------|
G|------------------------------------|
A|------------------------------------|
D|------------------------------------|


D|------------------------------------|
A|--5-----------5----5---5---5---5----|
D|-----------4-----0---0---0---0------|
G|---------0--------------------------|
A|------0-----------------------------|
D|------------------------------------|


D|------------------------------------|
A|--5---5---5---5---------------------|
D|----0-------0-----------------------|  
G|--------7---------7-----------------|
A|------------------------------------|
E|------------------------------------|


D|------------------------------------|
A|--7---7---7---7---------------------|
D|----x-------x-----------------------|  
G|--------7---------------------------|
A|------------------------------------|
D|-----------------0------------------|


D|------------------------------------|
A|--2---2---2---2---------------------|
D|----0-------0-----------------------|  
G|--------4---------------------------|
A|------------------------------------|
D|-----------------0------------------|


D                   D4/G
Estou quase a desfalecer
 D                         D4/G
Dores vem, me fazem enfraquecer
 Em                        Bm
Mas posso Te encontrar em meu espírito

D                    Am
Estar imerso em Tua paz
 D                     Am
Continuo assim a caminhar

 D                     D4/G
Falhas que revelam o que sou
D                      D4/G
Apenas mais um mero pecador
 Em                        Bm
Mas posso Te encontrar em meu espírito

D                     Am
Estar imerso em Teu amor
 D                  Am
Continuo assim a lutar

 G                  D
Posso descansar em Ti
 D/A  Bm     A9      G   Em
Você me ensinou meu Mestre
  G                       D
Que se o fardo estiver pesado
       A   Bm     A9   Bm  G
Posso colocar sobre Ti
   Em     D
E leve estarei 

D  Am9

D                       D4/G
Abro mão de tudo o que sou
 D                       D4/G
Só assim Tu poderás crescer

  Em
Grato sou ó Pai
     Bm
Por poder compreender
     D                      A9m
Que não dependo das minhas mãos
    D                      A9m
Mas estou seguro em Tua redenção

 G                  D
Posso descansar em Ti
 D/A  Bm     A9      G     Em
Você me ensinou meu Mestre
  G                       D
Que se o fardo estiver pesado
       A   Bm     A9   Bm  G
Posso colocar sobre Ti
   Em     D
E leve estarei

[Solo]
                             

E|-----------------------------------|---------------------|
B|--8p7p0----------------------------|---------------------|
G|--------9p7p0--------------7~~-----|-55555555-99999999---|
D|--------------7p5p0----------------|-55555555-99999999---|
A|--------------------5h7/9----------|-33333333-77777777---|
D|-----------------------------------|---------------------|


Bm                 A9
E mesmo que o futuro seja
   Em
Incerto ao meu entender
Bm                A9
O que mais eu posso querer?
 F                  G
Se Tu és meu guia, não há o que temer

 G                  D
Posso descansar em Ti
 D/A  Bm     A9      G    Em
Você me ensinou meu Mestre
  G                       D
Que se o fardo estiver pesado
       A   Bm     A9   Bm  G
Posso colocar sobre Ti
     Bm     A9  G
Colocar sobre ti
               Em  G  Em  G
E leve estarei

D  Am9

0 comentários

    mostrar mais comentários

    Conseguiu tocar?

    47tocaram0ainda não

    Grave um vídeo tocando Descanso e mande pra gente!

    00:00 / 00:00
    outros vídeos desta música
    repetirqualidadeautomática
    Outro vídeos desta música
      00:00 / 00:00
      automática
      OK