Enviar cifraEntrar

Descanso

Oficina G3

Cifra: Principal
exibições 125.272
Tom: G
Afinação: DADGAD

Intro:

D|--------------------------|
A|--5---5---5----5----5---5-|
D|----0---0----0----0---0---|17x
G|--------------------------|
A|--------------------------|
D|--------------------------|


D|------------------------------------|
A|--5-----------5----5---5---5---5----|
D|-----------4-----0---0---0---0------|
G|---------0--------------------------|
A|------0-----------------------------|
D|------------------------------------|


D|--------------------------|
A|--5---5---5----5----5---5-|
D|----0---0----0----0---0---|
G|--------------------------|
A|--------------------------|
D|--------------------------|


D|------------------------------------|
A|--5-----------5----5---5---5---5----|
D|-----------4-----0---0---0---0------|
G|---------0--------------------------|
A|------0-----------------------------|
D|------------------------------------|


D|-----------------------|
A|--5---5---5---5--------|
D|----0-------0----------|  4x
G|--------7---------7----|
A|-----------------------|
E|-----------------------|


D|-----------------------|
A|--7---7---7---7--------|
D|----x-------x----------|  2x
G|--------7--------------|
A|-----------------------|
D|-----------------0-----|


D|-----------------------|
A|--2---2---2---2--------|
D|----0-------0----------|  2x
G|--------4--------------|
A|-----------------------|
D|-----------------0-----|


[Dedilhado]

D                  D4/G
Estou quase a desfalecer
D                          D4/G
Dores vem, me fazem enfraquecer
Em                         Bm
Mas posso Te encontrar em meu espírito

D                   Am
Estar imerso em Tua paz
D                     Am
Continuo assim a caminhar

(Dedilhado)

D                      D4/G
Falhas que revelam o que sou
D                      D4/G
Apenas mais um mero pecador
Em                         Bm
Mas posso Te encontrar em meu espírito

D                     Am
Estar imerso em Teu amor
D                   Am
Continuo assim a lutar

Refrão:
 G                D
Posso descansar em Ti
      Bm      A9     G      Em
Você me ensinou meu Mestre
G                         D
Que se o fardo estiver pesado
           Bm   A9     G
Posso colocar sobre Ti
    Em     D
E leve estarei 

Volta segunda estrofe 2x: D  A9m

(Dedilhado)

D                     D4/G
Abro mão de tudo o que sou
D                      D4/G
Só assim Tu poderás crescer

Em
Grato sou ó Pai
     Bm
Por poder compreender
    D                        A9m
Que não dependo das minhas mãos
     D                       A9m
Mas estou seguro em Tua redenção

G                  D
Posso descansar em Ti
     Bm      A9     G      Em
Você me ensinou meu Mestre
G                         D
Que se o fardo estiver pesado
           Bm   A9     G
Posso colocar sobre Ti
    Em     D
E leve estarei

Solo:
                              4x         (abafa e solta aos poucos)

E|-----------------------------------|---------------------|
B|--8p7p0----------------------------|---------------------|
G|--------9p7p0--------------7~~-----|-55555555-99999999---|
D|--------------7p5p0----------------|-55555555-99999999---|
A|--------------------5h7/9----------|-33333333-77777777---|
D|-----------------------------------|---------------------|



Bm                 A9
E mesmo que o futuro seja
    Em
Incerto ao meu entender
Bm                A9
O que mais eu posso querer?
F                  G
Se Tu és meu guia, não há o que temer

G                  D
Posso descansar em Ti
     Bm      A9     G      Em
Você me ensinou meu Mestre
G                         D
Que se o fardo estiver pesado
           Bm   A9     Bm   G
Posso colocar sobre Ti
     Bm   A9     G
Colocar sobre ti
               Em G Em G
E leve estarei

( D  A9m )
  • 1
  • 2
  • 3
  • 4
  • 5
  • 6
  • 7
  • 8
  • 9
  • 10
  • 11
  • 12

    0 comentários

      mostrar mais comentários

      Conseguiu tocar?

      45tocaram0ainda não

      Grave um vídeo tocando Descanso e mande pra gente!

      00:00 / 00:00
      outros vídeos desta música
      repetirqualidadeautomática
      • automática
      Outro vídeos desta música
        00:00 / 00:00
        automática
        • automática
        Acordes para:violão e guitarra
        dificuldadeexibiçõescontribuições
        1 versão de Guitar Proformatodownloadscontribuição
        fecharplay/pause subir/descer velocidade
          acordes
          fechar
          OK
          Feedback