Cifra Club

Eu Sou

Oficina G3

Cifra: Principal
exibições 85.068
Tom: G#
 Intro: (Riff 1) Cm
E|--------------------------------------------------------|
B|--------------------------------------------------------|
G|--------------------------------------------------------|
D|---3---------------------8------------------------------|
A|-----6-3--3--3-3--5/ 6--3--3-3--3-3-3-3--3-5-6-5-3-3-3--|
E|--------------------------------------------------------|

E|---------------------------------------------------------------------------|
B|---------------------------------------------------------------------------|
G|---------------------------------------------------------------------------|
D|---3---------------------8----------------------------------------8-8-8----|
A|-----6-3--3--3-3--5/ 6--3--3-3--3-3-3---3-3-3-3-3-3--6-6-6-----------------|
E|---------------------------------------------------------------------------|

E|------3---------------------------------------|
B|--------4-------------------------------------|
G|-- 5-----5------------------------------------|
D|---5----------5-----5--3/3-3---3--------------|
A|---3------------8-6------------6---6-5-3------|
E|----------------------------------------------|

Cm                       G#
Muitos querem me encontrar
          F               Cm
Mas não sabem onde ir
         Cm             G#
Outros querem me escutar
           F                G#    G   D#   F
Mas não param pra me ouvir

                          G#   G   D#   F
Eu sou o principio e o fim
                         G#   G   D#   F
Não há outro igual a mim
                                G#   G   D#   F
Todo poder esta em minhas mãos

Riff 1: Cm

Cm                        G#
Muitos dizem me conhecer
             F                  Cm
Mas me conhecem só de ouvir
           Cm                  G#
Outros tentam me explicar
        F                G#   G   D#   F
Negar tudo o que eu fiz

Eu sou o principio e o fim...

Cm         G#          D#     F
Quem buscar me encontrara
Cm        G#   D#   F
Quem pedir recebera
Cm          G#     D#     F
Quem invocar eu vou ouvir
Cm  G#   D#   F
Eu sou ------------o eu sou

Riff 1: Cm

C         G#
Eu sou o, eu sou
Fm                       C
Minha palavra não tem fim
C                          G#
Tudo esta em minhas mãos
Fm                    G#   Gm   D#   F
Não há impossíveis para mim

Eu sou o principio e o fim...

Quem buscar me encontrara...

Solo:  C  G#  D#  F  C  G#  D#  F  C  G#  D#  F  C  G#  D#  F  C#

Bbm       F#          C#     D#
Quem buscar me encontrara
Bbm     F#   C#   D#
Quem pedir recebera
Bbm       F#     C#     D#
Quem invocar eu vou ouvir
Bbm F#   C#   D#
Eu sou ------------o eu sou

Riff 1: Cm
Acordes para:
    Composição: IndisponivélColaboração e revisão:
    • giullio souza
    • Allinson Oliveira
    • Ivan Felipe

    0 comentários

      mostrar mais comentários

      Conseguiu tocar?

      8tocaram0ainda não

      Grave um vídeo tocando Eu Sou e mande pra gente!

      00:00 / 00:00
      outros vídeos desta música
      repetirqualidadeautomática
      Outro vídeos desta música
        00:00 / 00:00
        automática
        OK