Cifra Club

Aprenda

Little Things

One Direction

Cifra: Principal (violão e guitarra)
Tom: G
[Intro] G  C9  Em7  D11  C  D11  G

[Dedilhado Intro e Primeira Parte]

[Violão 1]

Parte 1 de 4
   G
E|------------------------------------------|
B|-----3-----3----------3-----3-------------|
G|---0-----0-----0----0-----0---------------|
D|-------0-----0----------0-----------------|
A|------------------------------------------|
E|-3----------------3-----------------------|

Parte 2 de 4  
       C9
E|------------------------------------------|
B|---------3-----3----------3-----3---------|
G|-------0-----0-----0----0-----0-----0-----|
D|-----------2-----2----------2-----2-------|
A|-0-2-3----------------3-------------------|
E|------------------------------------------|

Parte 3 de 4
   Em7             D11
E|------------------------------------------|
B|-----3-----3----------3-----3-------------|
G|---0-----0-----0----0-----0-----0---------|
D|-------0-----0----4-----4-----4-----------|
A|------------------5-----------------------|
E|-0----------------------------------------|

Parte 4 de 4
   C        D11      G
E|------------------------------------------|
B|-----1--------3--------3-----3------------|
G|-------0--------0----0-----0-----0--------|
D|---2--------4------------0-----0----------|
A|-3--------5-------------------------------|
E|-------------------3----------------------|

[Violão 2]

Parte 1 de 4
   D
E|-----2-----0--------2-----0---------------|
B|-------------3--------------3-------------|
G|---2-----2--------2-----2-----------------|
D|-0-----0--------0-----0-------------------|
A|------------------------------------------|
E|------------------------------------------|

Parte 2 de 4
   G7M
E|-----2-----0--------2-----0---------------|
B|-------------3--------------3-------------|
G|---0-----0--------0-----0-----------------|
D|------------------------------------------|
A|------------------------------------------|
E|-3-----3--------3-----3-------------------|

Parte 3 de 4
   Bm7(11)        A4   
E|-----0-----0--------0-----0---------------|
B|-------------3--------------3-------------|
G|---2-----2--------2-----2-----------------|
D|------------------------------------------|
A|-2-----2--------0-----0-------------------|
E|------------------------------------------|

Parte 4 de 4
   G      A        D    
E|-----0---------------2-----0--------------|
B|------------2-3--------------3------------|
G|---0------2--------2-----2----------------|
D|-----------------0-----0------------------|
A|--------0---------------------------------|
E|-3----------------------------------------|

[Primeira Parte]

Your hand fits in mine

Like it's made just for me
     C9
But bear this in mind

It was meant to be
         Em7
And I'm joining up the dots
           D11
With the freckles on your cheeks
       C          D11      G
And it all makes sense to me

I know you've never loved

The crinkles by your eyes
           C9
When you smile

You've never loved

Your stomach or your thighs
     Em7
The dimples in your back
        D11
At the bottom of your spine
          C        D11     G
But I'll love them endlessly

[Refrão]

[Dedilhado Refrão]

[Violão 1]

Parte 1 de 4
   Am7              C
E|------------------------------------------|
B|-----1-----1----------1-----1-------------|
G|---0-----0-----0----0-----0-----0---------|
D|-2-----2-----2----2-----2-----2-----------|
A|-0-----0-----0----3-----3-----3-----------|
E|------------------------------------------|

Parte 2 de 4
   Em               D11
E|------------------------------------------|
B|-----0-----0----------3-----3-------------|
G|---0-----0-----0----0-----0-----0---------|
D|-2-----2-----2----4-----4-----4-----------|
A|-2-----2-----2----5-----5-----5-----------|
E|-0-----0-----0----------------------------|

Parte 1 de 4
   Am7              C
E|------------------------------------------|
B|-----1-----1----------1-----1-------------|
G|---0-----0-----0----0-----0-----0---------|
D|-2-----2-----2----2-----2-----2-----------|
A|-0-----0-----0----3-----3-----3-----------|
E|------------------------------------------|

Parte 2 de 4
   Em               D11
E|------------------------------------------|
B|-----0-----0----------3-----3-------------|
G|---0-----0-----0----0-----0-----0---------|
D|-2-----2-----2----4-----4-----4-----------|
A|-2-----2-----2----5-----5-----5-----------|
E|-0-----0-----0----------------------------|

Parte 3 de 4
   C
E|------------------0-----------------------|
B|-----1-----1------1-----------------------|
G|---0-----0-----0--0-----------------------|
D|-2-----2-----2----2-----------------------|
A|-3-----3-----3----3-----------------------|
E|------------------------------------------|

Parte 4 de 4
   G
E|------------------------------------------|
B|-----3-----3-----3------------------------|
G|---0-----0-----0--------------------------|
D|-------0-----0----------------------------|
A|------------------------------------------|
E|-3---------------3------------------------|

[Violão 2]

Parte 1 de 4
   Em7            G7M
E|-----0-----0--------2-----0---------------|
B|-------------3--------------3-------------|
G|---0-----0--------0-----0-----------------|
D|------------------------------------------|
A|------------------------------------------|
E|-0-----0--------3-----3-------------------|

Parte 2 de 4
   Bm7            A
E|------------------------------------------|
B|-----3-----3--------2-3p2-----------------|
G|---2-----2---2----2-----------------------|
D|------------------------------------------|
A|-2-----2--------0-------------------------|
E|------------------------------------------|

Parte 3 de 4
   Em7            G7M
E|-----0-----0--------2-----0---------------|
B|-------------3--------------3-------------|
G|---0-----0--------0-----0-----------------|
D|------------------------------------------|
A|------------------------------------------|
E|-0-----0--------3-----3-------------------|

Parte 2 de 4
   Bm7            A
E|------------------------------------------|
B|-----3-----3--------2-3p2-----------------|
G|---2-----2---2----2-----------------------|
D|------------------------------------------|
A|-2-----2--------0-------------------------|
E|------------------------------------------|

Parte 4 de 4
   G
E|------------------------------------------|
B|-----3-----3-----3------------------------|
G|---0-----0-----0--------------------------|
D|------------------------------------------|
A|------------------------------------------|
E|-3-----3-----3----------------------------|

Am7                            C
    I won't let these little things
     Em         D11
Slip out of my mouth
          Am7
But if I do
      C
It's you
          Em
Oh, it's you
             D11
They add up to
        C
I'm in love with you
                       G
And all these little things

[Segunda Parte]

You can't go to bed

Without a cup of tea
     C9
And maybe that's the reason

That you talk in your sleep
    Em7
And all those conversations
         D11
Are the secrets that I keep
           C        D11      G
Though it makes no sense to me

I know you've never loved
                            C9
The sound of your voice on tape

You never want 

To know how much you weigh
 Em7
You still love to squeeze 
   D11
Into your jeans
     C         D11     G
But you're perfect to me

[Refrão]

Am7                            C
    I won't let these little things
     Em         D11
Slip out of my mouth
          Am7
But if I do
      C
It's you
          Em
Oh, it's you
             D11
They add up to
        C
I'm in love with you
                       
And all these little things

[Terceira Parte]

[Dedilhado Terceira Parte]

[Violão 1]

Parte 1 de 2
   Am7              C
E|------------------------------------------|
B|-----1-----1----------1-----1-------------|
G|---0-----0-----0----0-----0-----0---------|
D|-2-----2-----2----2-----2-----2-----------|
A|-0-----0-----0----3-----3-----3-----------|
E|------------------------------------------|

Parte 2 de 2
   G                D
E|------------------------------------------|
B|-----3-----3----------3-----3-------------|
G|---0-----0-----0----2-----2-----2---------|
D|-0-----0-----0----4-----4-----4-----------|
A|-2-----2-----2----5-----5-----5-----------|
E|-3-----3-----3----------------------------|

[Violão 2]

Parte 1 de 2
   Em7            G7M
E|------------------------------------------|
B|-----3-----3--------3-----3---------------|
G|---0-----0---0----0-----0---0-------------|
D|------------------------------------------|
A|------------------------------------------|
E|-0-----0--------3-----3-------------------|

Parte 2 de 2
   D9             A
E|------------------------------------------|
B|-----3-----3--------2-3p2-----------------|
G|---2-----2---2----2-----------------------|
D|-0-----0----------------------------------|
A|----------------0-------------------------|
E|------------------------------------------|

Am7               C
    You'll never love yourself
     G                  D
Half as much as I love you
Am7                C
    You'll never treat yourself right 
    G                     D
Darlin' but I want you to
Am7                C
    If I let you know
     G        D
I'm here for you
Am7               C
    Maybe you'll love yourself
     G       D
Like I love you, oh

[Refrão Final]

Am7                            C
    I won't let these little things
     Em         D11
Slip out of my mouth
             Am7
'Cause it´s you
          C
Oh, it's you
      Em
It's you
             D11
They add up to
        C
I'm in love with you
                       
And all these little things

Am7                            C
    I won't let these little things
     Em         D11
Slip out of my mouth
              Am7
But if it's true
      C
It's you
          Em
Oh, it's you
             D11
They add up to
        C
I'm in love with you
                       G     
And all these little things
Composição de Ed Sheeran / Fiona Bevan
632.291 exibições
  • Simplificar cifra
    • ½ Tom
    • A
    • Bb
    • B
    • C
    • Db
    • D
    • Eb
    • E
    • F
    • F#
    • G
    • Ab
  • Adicionar à lista

    0 comentários

    Mostrar mais comentários

    Conseguiu tocar?

    124 Tocaram 11 Ainda não

    Grave um vídeo tocando Little Things e mande pra gente!

    00:00 / 00:00
    outros vídeos desta música
    repetir qualidade Automático
    Outros vídeos desta música
    00:00 / 00:00
    Automático
    Capítulos
    • Tocando a música
    • Dicas Iniciais / Equipamentos
    • Acordes Introdução e Primeira Parte
    • Tocando Introdução e Primeira Parte
    • Violão 1: Introdução/Primeira Parte - Parte 1 de 4
    • Violão 1: Introdução/Primeira Parte - Parte 2 de 4
    • Violão 1: Introdução/Primeira Parte - Parte 3 de 4
    • Violão 1: Introdução/Primeira Parte - Parte 4 de 4
    • Acordes do Refrão
    • Tocando o Refrão
    • Acordes Terceira Parte
    • Tocando Terceira Parte
    • Violão 1: Terceira Parte - Parte 1 de 2
    • Violão 1: Terceira Parte - Parte 2 de 2
    • Refrão Final
    • Tocando Refrão Final
    • Violão 2: Dicas
    • Violão 2: Acordes Introdução e Primeira Parte
    • Violão 2: Tocando Introdução e Primeira Parte
    • Violão 2: Introdução/Primeira Parte - Parte 1 de 4
    • Violão 2: Introdução/Primeira Parte - Parte 2 de 4
    • Violão 2: Introdução/Primeira Parte - Parte 3 de 4
    • Violão 2: Introdução/Primeira Parte - Parte 4 de 4
    • Violão 2: Acordes do Refrão
    • Violão 2: Tocando o Refrão
    • Violão 2: Refrão - Parte 1 de 4
    • Violão 2: Refrão - Parte 2 de 4
    • Violão 2: Refrão - Parte 3 de 4
    • Violão 2: Refrão - Parte 2 de 4
    • Violão 2: Refrão - Parte 4 de 4
    • Violão 2: Acordes Terceira Parte
    • Violão 2: Tocando Terceira Parte
    • Violão 2: Terceira Parte - Parte 1 de 2
    • Violão 2: Terceira Parte - Parte 2 de 2
    • Encerramento
    • Ficha Técnica

    Cifra Club Pro

    Aproveite o Cifra Club com benefícios exclusivos e sem anúncios
    Cifra Club Pro
    Aproveite o Cifra Club com benefícios exclusivos e sem anúncios
    OK