Enviar cifraEntrar

More Than This

One Direction

Cifra: Principal
exibições 122.699
Tom: C

  C
E|----------------------------------------------------|
B|-----1----------------------------------------------|
G|------0---------------------------------------------|
D|---2----2-------------------------------------------|
A|-3-------3------------------------------------------|
E|----------------------------------------------------|


  Am7
E|----------------------------------------------------|
B|-----1----------------------------------------------|
G|------0---------------------------------------------|
D|---2----2-------------------------------------------|
A|---------0------------------------------------------|
E|----------------------------------------------------|


  G
E|----------------------------------------------------|
B|-----1----------------------------------------------|
G|------0---------------------------------------------|
D|---2----2-------------------------------------------|
A|----------------------------------------------------|
E|---------3------------------------------------------|


  Em             F/A          G4
E|----------------------------------------------------|
B|-----3---------3---------0---------1------3---------|
G|------0----------0---------0------------------------|
D|---0----0----0-----0---3-----3---3------------------|
A|----------------------------------------------------|
E|----------3----------0---------1-----3--------------|


Intro:
C  Am7  G  Em  F/A  G4
Ooooh, ohhh

C            Am7
I'm broken, do you hear me?
G                  Em            F/A      G4
I'm blinded, cause you are everything I see
C            Am7     G
I'm dancing alone I'm praying
Em                        F/A    G4
that your heart will just turn around
Am7                      G
And as I walk up to your door
                          F/A
My head turns to face the floor
                       
Cause I can't look you in the eyes
     G
And say

Refrão:
            C                  Am7             G
When he opens his arms and holds you close tonight
 it just won't feel right
Dm            C                  G
Cause I can love you more than this, yeah
            C                  Am7         G
When he lays you down I might just die inside
                  Dm                C                 G
it just don't feel right cause I can love you more than this

                      C
can love you more than this
C            Am7
If I'm louder would you see me?
G                  Em            F/A      G4
Would you lay down in my arms and rescue me?
C                 Am7
Cause we are the same
G
you save me
Em                  F/A    G4
When you leave it's gone again
Am7                       G
And then I see you on the street
In his arms,
      F/A
I get weak
                      F/A
My body feels I'm on my knees
  G
Praying
yeah

Refrão:
            C                  Am7             G
When he opens his arms and holds you close tonight
 it just won't feel right
Dm            C                  G
Cause I can love you more than this, yeah
            C                  Am7         G
When he lays you down I might just die inside
                  Dm                C                 G
it just don't feel right cause I can love you more than this

 Dm                         Bb5(9)                          F/A
I've never had the words to say but now I'm asking you to stay for a little
       C
while inside my arms
Dm                           Bb5(9)                              F/A
and as you close your eyes tonight I pray that you will see the light that's
                 C
shining from the stars, above (and I say)

Refrão:
            C                  Am7             G
When he opens his arms and holds you close tonight
 it just won't feel right
Dm            C                  G
Cause I can love you more than this
Cause I can love you more than this, yeah
            C                  Am7        G
When he lays you down I might just die inside
                         Dm          C                 G
it just don't feel right cause I can love you more than this, yeah

         C                  Am7             G
When he opens his arms and holds you close tonight
 it just won't feel right
Dm            C                  G
Cause I can love you more than this
Cause I can love you more than this, yeah
            C                  Am7        G
When he lays you down I might just die inside
                  Dm                C                 G
it just don't feel right cause I can love you more than this
                      C
can love you more than this
  • 1
  • 2
  • 3
  • 4
  • 5
  • 6
  • 7
  • 8
  • 9
  • 10
  • 11
  • 12
    Acordes para:

      0 comentários

        mostrar mais comentários

        Conseguiu tocar?

        49tocaram1ainda não

        Grave um vídeo tocando More Than This e mande pra gente!

        00:00 / 00:00
        outros vídeos desta música
        repetirqualidadeautomática
        • automática
        Outro vídeos desta música
          00:00 / 00:00
          automática
          • automática
          Acordes para:violão e guitarra
          dificuldadeexibiçõescontribuições
          fecharplay/pause subir/descer velocidade
            acordes
            fechar
            OK
            Feedback