Enviar cifraEntrar

Summer Love

One Direction

Cifra: Principal
exibições 37.939
Tom: G
Intro e Versos:


        D9              D9/C#            D9/B             G
E|----------------0----------------0---------------0-----------2p0---|
B|--------3-----3----------3-----3---------3-----3----------3------3-|
G|----2-------2--------2-------2-------2-------2----------0----------|
D|--0---0---0-------------------------------------------0------------|
A|-------------------4---4---4-------2---2---2-----------------------|
E|----------------------------------------------------3--------------|


Rampa e Ponte:


       A        Em
E|----------------|
B|----2-------0---|
G|---2-2-----0-0--|
D|--2---2---2---2-|
A|-0--------------|
E|---------0------|


Coro:


       D    Am      C     G
E|----2----0------0------3---|
B|---3----1-1----1-1------3--|
G|--2----2---2--2---2---0--0-|
D|-0-------------------0-----|
A|------0------3-------------|
E|--------------------3------|


Variação da nota D no Refrão:


E|----2-3-2-|
B|---3------|
G|--2-------|
D|-0--------|
A|----------|
E|----------|



D9                   D9/C#
 Can't believe your packin your bags
 D9/B            G
Tryin so hard not to cry
D                      D9/C#
 Had the best time and now its the worst time
D9/B             G
 But we have to say goodbye

A
 Don't promise that you're gonna write
       Em
Don't promise that you'll call
A                                      G
 Just promise that you won't forget we had it all

               D            Am
Cause you were mine for the Summer
       C               G
Now we know its nearly over
           D          Am
Feels like snow in September
      C              G
But I always will remember
        D Am      G
You were my Summer love
                 D Am       G
You always will be my Summer love

D9                   D9/C#
 Wish that we could be alone now
D9/B                    G
 If we could find some place to hide
D9                   D9/C#
 Make the last time just like the first time
D9/B            G
 Push a button and rewind

A
Don't say the word that's on your lips
      Em
Don't look at me that way
A
 Just promise you'll remember
         G
When the sky is grey

               D            Am
Cause you were mine for the Summer
       C               G
Now we know its nearly over
           D          Am
Feels like snow in September
      C              G
But I always will remember
        D Am      G
You were my Summer love
                 D Am       G
You always will be my Summer love

          A
So please don't make this any harder
   Em
We can't take this any farther
    A                                  G
And I know there's nothin that I wanna change, change

               D            Am
Cause you were mine for the Summer
       C               G
Now we know its nearly over
           D          Am
Feels like snow in September
      C              G
But I always will remember
        D Am      G
You were my Summer love
                 D Am       G
You always will be my Summer love
                 D Am       G
You always will be my Summer love
                 D Am       G
You always will be my Summer love
  • 1
  • 2
  • 3
  • 4
  • 5
  • 6
  • 7
  • 8
  • 9
  • 10
  • 11
  • 12
    Acordes para:

      0 comentários

        mostrar mais comentários

        Conseguiu tocar?

        15tocaram0ainda não

        Grave um vídeo tocando Summer Love e mande pra gente!

        00:00 / 00:00
        outros vídeos desta música
        repetirqualidadeautomática
        • automática
        Outro vídeos desta música
          00:00 / 00:00
          automática
          • automática
          Acordes para:violão e guitarra
          dificuldadeexibiçõescontribuições
          fecharplay/pause subir/descer velocidade
            acordes
            fechar
            OK
            Feedback