Cifra Club

Aprenda

Last Dance

One Ok Rock

Cifra: Principal (violão e guitarra)
Tom: Eb (forma dos acordes no tom de E) Afinação: Eb Ab Db Gb Bb Eb
Intro (violão):

A5 C#5 B5 (4x)

Riff (guitarra): (sempre tocado durante o verso)

E|-----------------------------------
B|-----------------------------------
G|-----------------------------------
D|----2---2---2---2---2---2---1---1-- (3x)
A|--4---4---4---4---4---4---2---2----
E|-----------------------------------

E|-----------------------------------
B|-----------------------------------
G|-----------------------------------
D|----2---2---2---2---2---2---1---1-- (1x)
A|--0---0---0---0---0---0---2---2----
E|-----------------------------------


Arranjo Guitarra 2:

E|-----11h12-------------16--------
B|--12-----------12-14------17-----
G|------------13---------------18--
D|---------------------------------
A|---------------------------------
E|---------------------------------

E|-----11h12-------------21\16--------
B|--12-----------12-14---------17-----
G|------------13------------------18--
D|------------------------------------
A|------------------------------------
E|------------------------------------

Verso:
A5 C#5 B5
It started out as any other story
A5 C#5 B5
then the words began to fade away.
A5 C#5 B5
Oh, your smile used to make me smile
A5 C#5 B5
but lately I don't feel that way.

A5 C#5 B5
Try to remember what brought us together
A5 C#5 B5
and to forget what's driving us apart.
A5 C#5 B5
You know we can't wait here forever
A5
just making time

Variação do riff:
E|-------------------------
B|----5-----4-----5-----7--
G|--4-----4-----4-----4----
D|-------------------------
A|-------------------------
E|-------------------------

    B5
and going nowhere.

Refrão:
F#5     B5
Is this our last dance?
E5           C#5
Can we take another chance
   F#5  B5          E5
to be along together still?

oitavadas:
E|-----------------------------
B|-----------------------------
G|--6-----4-----9-----4--------
D|--x(2x)-x(2x)-x(2x)-x(2x)----
A|--4-----2-----7-----2--------
E|--------------------------0--

F#5    B5
Are we wasting time
E5                 C#5
chasing dreams not yours or mine?
F#5      B5
Care for you, I always will.

A5 C#5 B5 (1x)

Verso:
A5 C#5 B5
We can try to keep the love from fading.
A5 C#5 B5
'Cuz all we have our reasons to be gone.
A5 C#5 B5
Remember when you used to make me smile?
A5 C#5 B5
But lately I don't feel the same.

A5 C#5 B5
Look up and I see your face.
A5 C#5 B5
I can see you looking back at me.
A5 C#5 B5
Every time I think it's getting better.
A5
Just making time 

Variação do riff:
E|-------------------------
B|----5-----4-----5-----7--
G|--4-----4-----4-----4----
D|-------------------------
A|-------------------------
E|-------------------------
    B5
and going nowhere.

Refrão:
F#5     B5
Is this our last dance?
E5           C#5
Can we take another chance
   F#5  B5          E5
to be along together still?

oitavadas:
E|-----------------------------
B|-----------------------------
G|--6-----4-----9-----4--------
D|--x(2x)-x(2x)-x(2x)-x(2x)----
A|--4-----2-----7-----2--------
E|--------------------------0--

F#5    B5
Are we wasting time
E5                 C#5
chasing dreams not yours or mine?
F#5      B5         D5       A5
Care for you, I always will.

Outro:
E|-----------------
B|-----------------
G|-----------------
D|-----------------
A|--7--6------2----
E|--5--4--2-4-0----
You know I always will.

D5 A5

E|-----------------
B|-----------------
G|-----------------
D|-----------------
A|--7--6-------2---
E|--5--4-0-2-4-0---
But there's no looking back.

D5 A5

                         A5
And no more need to cry.
                     A5
No more need to cry.
                     A5  B5
No more need to cry.

Refrão final:
Is this all we have?
E5              C#5
Should we walk away at last

F#5    B5       E5
to be along together still?

oitavadas:
E|-----------------------------
B|-----------------------------
G|--6-----4-----9-----4--------
D|--x(2x)-x(2x)-x(2x)-x(2x)----
A|--4-----2-----7-----2--------
E|--------------------------0--

F#5    B5
Are we wasting time
E5                 C#5
chasing dreams not yours or mine?
F#5      B5       A5         A5
Care for you, I always will.
                       A5
You know I always will.
Composição de ONE OK ROCK
Colaboração e revisão:
  • Leo OORguitah
1.227 exibições
  • Simplificar cifra
    • ½ Tom
    • A
    • Bb
    • B
    • C
    • Db
    • D
    • Eb
    • E
    • F
    • F#
    • G
    • Ab
  • Adicionar à lista

    0 comentários

    Mostrar mais comentários

    Conseguiu tocar?

    1 Tocaram 0 Ainda não

    Grave um vídeo tocando Last Dance e mande pra gente!

    00:00 / 00:00
    outros vídeos desta música
    repetir qualidade Automático
    Outros vídeos desta música
    00:00 / 00:00
    Automático
    OK