Cifra Club

Eu Irei

ONE Sounds

Cifra: Principal (violão e guitarra)
Selo Cifra Club: esta cifra foi revisada para atender aos critérios oficiais da nossa Equipe de Qualidade.
tom: F# (forma dos acordes no tom de E) Capotraste na 2ª casa
[Intro] Em7  G  D  A

[Tab - Intro]

   Em7
E|---------------------------|
B|-------0-----2-----3-----3-|
G|-----0-----0-----0-----0---|
D|---2-----2-----2-----2-----|
A|---------------------------|
E|-0-------------------------|

   G/B
E|-------------0-----2-----2-|
B|-------3-------------------|
G|-----0-----0-----0-----0---|
D|---2-----2-----2-----2-----|
A|---------------------------|
E|-3-------------------------|

   D
E|-------3-----2-----2-------|
B|-----3-----3---3-----------|
G|---2-----2-------0---------|
D|-0-------------------------|
A|---------------------------|
E|---------------------------|

   A
E|---------------------------|
B|-------3-----2-----0-----2-|
G|-----2-----2-----2-----2---|
D|---2-----2-----2-----2-----|
A|-0-------------------------|
E|---------------------------|


Em7                  G/B
Os puros verão em plena perfeição
D                     A
A glória que reside no Pai

Em7                  G/B             D
Oh Deus, me dê um coração igual ao Teu
    A
Ao Teu

[Solo] G  D  Bb
       Dm  C  A7

   G
Eu irei
   Bm
Eu irei
    D
Por onde quiser
    A
Por onde quiser

        G               Bm             D
Se pra ver Tua face é preciso subir mais alto
     A
Eu irei

           G
Se o Rio nasce no monte
               Bm
Eu subirei pra beber da fonte
           D
Se o Rio nasce no monte
                 A
Eu subirei pra beber da fonte

           G
Onde Tu estás, eu quero estar
           Bm
Onde Tu estás, eu quero estar
           D             A
Onde Tu estás, é o meu lugar

        G      Bm
Pois Tu és o Caminho
      D
A Verdade
     A
E a Vida
00:00 / 00:00
Outros vídeos desta música
Repetir
Outros vídeos desta música
102.394 exibições
    • ½ Tom
    • A
    • Bb
    • B
    • C
    • Db
    • D
    • Eb
    • E
    • F
    • F#
    • G
    • Ab
  • Adicionar à lista

Afinação da cifra

Afinador online

    0 comentários

    Ver todos os comentários

    Entre para o Cifra Club PRO

    Tenha acesso a benefícios exclusivos no App e no Site

    • Chega de anúncios

    • Mais recursos no app do Afinador

    • Atendimento Prioritário

    • Aumente seu limite de lista

    • Ajude a produzir mais conteúdo

    00:00 / 00:00

    Cifra Club Pro

    Aproveite o Cifra Club com benefícios exclusivos e sem anúncios
    Cifra Club Pro
    Aproveite o Cifra Club com benefícios exclusivos e sem anúncios
    OK