Cifra Club

Maranata

ONE Sounds

Cifra: Principal (violão e guitarra)
Selo Cifra Club: esta cifra foi revisada para atender aos critérios oficiais da nossa Equipe de Qualidade.
tom: C
[Tab - Intro]

E|-----8---------8-------5---|
B|---------------------------|
G|---9---9----9---9----0-----|
D|10--------9--------7-------|
A|---------------------------|
E|---------------------------|

               F7M
E|-----7------------3--------|
B|--------------1-------1----|
G|---0---0----2---2---2---2--|
D|-5--------3----------------|
A|---------------------------|
E|---------------------------|

E|--------3---------8----10-8|
B|----1-------1--------------|
G|--2---2---2---2------------|
D|3----------------10--9----7|
A|---------------------------|
E|---------------------------|

               F7M
E|-7---------3---------------|
B|-------1-------1-------1---|
G|-----2---2---2---2---2---2-|
D|-5-3---------------3-------|
A|---------------------------|
E|---------------------------|

          C
E|---------------------------|
B|-----1--------1--------1---|
G|---0---0----0---0----0---0-|
D|---------------------------|
A|-2-------3--------3--------|
E|---------------------------|

C
E me mostrou um rio
F
Um rio de águas vivas
Am        G        F
Brilhante como um cristal

C
E do outro lado estava
F
A Árvore da Vida
Am        G            F
Trazendo cura pro seu povo

C  G/B  Am   G4       F
Nunca mais haverá dor
C  G/B  Am   G4       F
Pois no Trono Ele está

      C
Maranata
      G
Maranata, ora vem
      Am
Maranata
      F
Maranata, ora vem

C
Eu te amo, eu te quero
G
Mais que tudo, mais que o mundo
Am                              F
Volta pra mim, volta pra mim, volta pra mim

      C
Maranatha
      G
Maranatha, oh lord comes
      Am
Maranatha
      F
Maranatha, oh lord comes

C
How I love you, how I need you
G
More than all things, more than this world
Am                                 F
Come back to me, come back to me, come back to me

C
Fiel e verdadeiro
F
Foi Tu que prometestes
Am          G          F
“Eis que venho sem demora”
C
Eu estou te esperando
F
Com o coração ardente
Am      G         F
Volta logo, vem agora

C
E,não há no céu
Alguém além de Ti
           G
Não há na Terra
                      Am
Alguém que eu queira mais que a Ti
                      F
Alguém que eu queira mais que a Ti

   C
Maranata
      G
Maranata, ora vem
      Am
Maranata
      F
Maranata, ora vem

              C                                    G
E mais que feliz e o povo que conhece os vivas de jubilo
                    Am             F
Que andam segundo a luz, a luz da presença

C                      G                  Am                   F
Se eu tiver que escolher, quem eu escolheria? quem eu escolheria?

     C    Am
Quão alto
      F        G
Quão grande amor
     C
Quão íntimo
Am
Romance
      F      G
É o nosso amor

C
Eu amo os Teus olhos
Am
Amo os Teus braços
F                           G
Amo os Teus lábios de amor

C
E Você ama os meus olhos
Am
Ama os meus braços
F                           G
Beija os meus lábios com amor
00:00 / 00:00
Outros vídeos desta música
Repetir
Outros vídeos desta música
99.227 exibições
    • ½ Tom
    • A
    • Bb
    • B
    • C
    • Db
    • D
    • Eb
    • E
    • F
    • F#
    • G
    • Ab
  • Adicionar à lista

Afinação da cifra

Afinador online

    0 comentários

    Ver todos os comentários

    Entre para o Cifra Club PRO

    Tenha acesso a benefícios exclusivos no App e no Site

    • Chega de anúncios

    • Mais recursos no app do Afinador

    • Atendimento Prioritário

    • Aumente seu limite de lista

    • Ajude a produzir mais conteúdo

    00:00 / 00:00

    Cifra Club Pro

    Aproveite o Cifra Club com benefícios exclusivos e sem anúncios
    Cifra Club Pro
    Aproveite o Cifra Club com benefícios exclusivos e sem anúncios
    OK