Cifra Club

Me Leva

Onze:20

Cifra: Principal
exibições 100.078
Tom: C# (com acordes na forma de D) Afinação: Eb Ab Db Gb Bb Eb
[Intro]  E  A  E  A  E  A  E  A
         E  A  E  A  E  A  E  A

[Solo]

Parte 1 de 2
                                                           
E|--------------------------------------------------|            
B|--10/12---12-12-12-12-----10-10-10----9--7--5-----|             
G|--------------------------------------------------| (3x)                 
D|--------------------------------------------------|             
A|--------------------------------------------------|             
E|--------------------------------------------------|             

Parte 2 de 2

E|--------------------------------|
B|-5/9----------------------------|
G|------9-----9/11----------------|
D|--------9-----------------------|
A|--------------------------------| 
E|--------------------------------| 

 E   A  E                             A
Lembra?   Da gente andando a noite inteira sem destino
 E   A  E                   A
Lembra?   Do por do sol na beira do rio
 E   A  E                        A
Lembra?   Você pedindo pra eu ficar mais um pouquinho
 E   A  E               A
Lembra?   Como tudo chegou ao fim

E|-11/12---11----7----4----------7----4-------------|          
B|-------------------------7------------------------|       
G|--------------------------------------------------|  (2x)           
D|--------------------------------------------------|        
A|--------------------------------------------------|         
E|--------------------------------------------------|  

E                  A             A
Eu nem sonhava te ver de novo aqui
E                A
Eu só queria te dizer

E                   F#m7(11)
  Me leva pra um lugar qualquer
E/G#           A(9)            E
  Me leva para onde eu possa ouvir
              F#m7(11)        E/G#       A(9)
Sua voz me dizendo pra eu ficar mais uma vez
E               F#m7(11)
  Me leva qualquer lugar
E/G#           A(9)            E
  Me leva para onde eu possa ouvir
              F#m7(11)      E/G#       A(9)
Sua voz me dizendo pra tentar mais uma vez ser feliz

[Solo]  E  A  E  A  E  A  E  A

Parte 1 de 2
                                                           
E|--------------------------------------------------|            
B|--10/12---12-12-12-12-----10-10-10----9--7--5-----|             
G|--------------------------------------------------| (3x)                 
D|--------------------------------------------------|             
A|--------------------------------------------------|             
E|--------------------------------------------------|             

Parte 2 de 2

E|--------------------------------|
B|-5/9----------------------------|
G|------9-----9/11----------------|
D|--------9-----------------------|
A|--------------------------------| 
E|--------------------------------| 

 E   A  E                     A
Lembra?   A gente vivia por dois era tão lindo
 E   A  E                        A
Lembra?   Grana acabando e a gente sorrindo
 E   A  E                        A
Lembra?   Quando eu dançava e você ficava rindo
 E   A  E               A
Lembra?   Como tudo chegou ao fim

E|-11/12---11----7----4----------7----4-------------|          
B|-------------------------7------------------------|       
G|--------------------------------------------------| (2x)
D|--------------------------------------------------|        
A|--------------------------------------------------|         
E|--------------------------------------------------| 

E                  A             A
Eu nem sonhava te ver de novo aqui
E                A
Eu só queria te dizer

E                   F#m7(11)
  Me leva pra um lugar qualquer
E/G#           A(9)            E
  Me leva para onde eu possa ouvir
              F#m7(11)        E/G#       A(9)
Sua voz me dizendo pra eu ficar mais uma vez
E               F#m7(11)
  Me leva qualquer lugar
E/G#           A(9)            E
  Me leva para onde eu possa ouvir
              F#m7(11)      E/G#       A(9)
Sua voz me dizendo pra tentar mais uma vez ser feliz

C#m7               A
  Me agarra e me leva pra outro lugar bem longe daqui
C#m7             A
  Vem ficar juntinho de mim até o sol nascer
F#m7             A
  Eu quero ser feliz ao seu lado e tem que ser agora
F#m7         A
  Eu só preciso te dizer

E                   F#m7(11)
  Me leva pra um lugar qualquer
E/G#           A(9)            E
  Me leva para onde eu possa ouvir
              F#m7(11)        E/G#       A(9)
Sua voz me dizendo pra eu ficar mais uma vez
E               F#m7(11)
  Me leva qualquer lugar
E/G#           A(9)            E
  Me leva para onde eu possa ouvir
              F#m7(11)      E/G#       A(9)
Sua voz me dizendo pra tentar mais uma vez ser feliz

[Final]  E  F#m7(11)  E/G#  A(9)
         E  F#m7(11)  E/G#  A(9)
Acordes para:
    Colaboração e revisão:

    0 comentários

      mostrar mais comentários

      Conseguiu tocar?

      10tocaram2ainda não

      Grave um vídeo tocando Me Leva e mande pra gente!

      00:00 / 00:00
      outros vídeos desta música
      repetirqualidadeautomática
      Outro vídeos desta música
        00:00 / 00:00
        automática
        OK