Enviar cifraEntrar

Não Devo Nada

Onze:20

Cifra: Principal
exibições 175.256
Tom: C Afinação: Eb Ab Db Gb Bb Eb
(intro)


   F7M            F7M/G            Am
E|----------------------------------------------------------------------|
B|----1-3--3-1----------3--3-1----------3--3-1---------3--3-1-----------|
G|--2----------2------2--------2------2--------2-----2--------2---------|   (2x)
D|3-----------------0---------------2--------------2--------------------|
A|--------------------------------0--------------0----------------------|
E|----------------3-----------------------------------------------------|


E|-----3h5p3------------------------------------------------------------|
B|3/5--------5-3-3h5p3-----1--------------------------------------------|
G|-------------------------2--------------------------------------------|
D|-------------------------3--------------------------------------------|
A|----------------------------------------------------------------------|
E|----------------------------------------------------------------------|


F7M   G9     Am
Sonhei com você
F7M     G9                  Am
E acordei com uma saudade boa
F7M    G9         Am
O que eu vou fazer
F7M            G9                 Am
Se eu não consigo amar outra pessoa?

D9           F9
Deixa esse medo pra lá
         D9                     Bb9
Melhor sorrir  Lá fora o tempo voa

            F7M           G9              Am
Eu não devo nada a ninguém e não quero o que não é meu
                 F7M      G9           Am
O que eu posso te oferecer é a voz que Deus me deu
            F7M        G9           Am
Me deixa falar de amor de um jeito que só eu sei
             F7M        G9           Am
Só quero te fazer feliz  só quero ficar com você

(Intro)

F7M   G9   Am
Pra quê fugir?
F7M            G9                        Am
Tentar me encontrar nas mãos de outra pessoa
F7M   G9       Am
Por que não desistir?
F7M           G9               Am
E para de enganar seu coração atoa

D9          F9
Deixa esse medo pra lá
         D9                    Bb9
Melhor sorrir  Lá fora o tempo voa

            F7M           G9              Am
Eu não devo nada a ninguém e não quero o que não é meu
                 F7M      G9           Am
O que eu posso te oferecer é a voz que Deus me deu
            F7M       G9           Am
Me deixa falar de amor de um jeito que só eu sei
             F7M       G9            Am
Só quero te fazer feliz  só quero ficar com você

(Solo: F7M G9  Am)

D9          F9
Deixa esse medo pra lá
         D9                     Bb9
Melhor sorrir  Lá fora o tempo voa

            F7M           G9              Am
Eu não devo nada a ninguém e não quero o que não é meu
                 F7M      G9            Am
O que eu posso te oferecer é a voz que Deus me deu
            F7M       G9           Am
Me deixa falar de amor de um jeito que só eu sei
             F7M       G9           Am
Só quero te fazer feliz  só quero ficar com você
  • 1
  • 2
  • 3
  • 4
  • 5
  • 6
  • 7
  • 8
  • 9
  • 10
  • 11
  • 12
    Acordes para:
      Composição: Onze:20Colaboração e revisão:
      • Mateus Eduardo
      • bruxo_felipe

      0 comentários

        mostrar mais comentários

        Conseguiu tocar?

        41tocaram0ainda não

        Grave um vídeo tocando Não Devo Nada e mande pra gente!

        00:00 / 00:00
        outros vídeos desta música
        repetirqualidadeautomática
        • automática
        Outro vídeos desta música
          00:00 / 00:00
          automática
          • automática
          Acordes para:violão e guitarra
          dificuldadeexibiçõescontribuições
          fecharplay/pause subir/descer velocidade
            acordes
            fechar
            OK
            Feedback