Cifra Club

Não Devo Nada

Onze:20

Cifra: Principal
exibições 200.135
Tom: C
[Intro]  F7M  F7M/G  Am
         F7M  F7M/G  Am

    F7M            F7M/G            Am
E|----------------------------------------------------------------|
B|-----1-3--3-1----------3--3-1----------3--3-1---------3--3-1----|
G|---2----------2------2--------2------2--------2-----2--------2--| (2x)
D|-3-----------------0---------------2--------------2-------------|
A|---------------------------------0--------------0---------------|
E|-----------------3----------------------------------------------|

E|------3h5p3-----------------------------------------------------|
B|-3/5--------5-3-3h5p3-----1-------------------------------------|
G|--------------------------2-------------------------------------|
D|--------------------------3-------------------------------------|
A|----------------------------------------------------------------|
E|----------------------------------------------------------------|

F7M   G9      Am9
  Sonhei com você
F7M      G9                  Am9
  E acordei com uma saudade boa
F7M     G9      Am9
  O que eu vou fazer
F7M             G9                 Am9
  Se eu não consigo amar outra pessoa?

D9            F9
  Deixa esse medo pra lá
           D9                  Bb9
Melhor sorrir Lá fora o tempo voa

             F7M          G9               Am7
Eu não devo nada a ninguém e nem quero o que não é meu
                F7M       G9            Am7
O que eu posso te oferecer é a voz que Deus me deu
            F7M       G9             Am7
Me deixa falar de amor de um jeito que só eu sei
           F7M         G9            Am7
Só quero te fazer feliz  só quero ficar com você

[Solo]  F7M  F7M/G  Am
        F7M  F7M/G  Am

    F7M            F7M/G            Am
E|----------------------------------------------------------------|
B|-----1-3--3-1----------3--3-1----------3--3-1---------3--3-1----|
G|---2----------2------2--------2------2--------2-----2--------2--| (2x)
D|-3-----------------0---------------2--------------2-------------|
A|---------------------------------0--------------0---------------|
E|-----------------3----------------------------------------------|

E|------3h5p3-----------------------------------------------------|
B|-3/5--------5-3-3h5p3-----1-------------------------------------|
G|--------------------------2-------------------------------------|
D|--------------------------3-------------------------------------|
A|----------------------------------------------------------------|
E|----------------------------------------------------------------|

F7M     G9   Am9
  Pra quê fugir?
F7M                  G9                     Am9
  Tentar me encontrar nas mãos de outra pessoa
F7M     G9       Am9
  Por que não desistir?
F7M              G9               Am9
  E para de enganar seu coração atoa

D9            F9
  Deixa esse medo pra lá
           D9                   Bb9
Melhor sorrir  Lá fora o tempo voa

             F7M          G9               Am7
Eu não devo nada a ninguém e nem quero o que não é meu
                F7M       G9            Am7
O que eu posso te oferecer é a voz que Deus me deu
            F7M       G9             Am7
Me deixa falar de amor de um jeito que só eu sei
           F7M         G9            Am7
Só quero te fazer feliz  só quero ficar com você

[Solo]  F7M  F7M/G  Am
        F7M  F7M/G  Am

    F7M            F7M/G            Am
E|----------------------------------------------------------------|
B|-----1-3--3-1----------3--3-1----------3--3-1---------3--3-1----|
G|---2----------2------2--------2------2--------2-----2--------2--| (2x)
D|-3-----------------0---------------2--------------2-------------|
A|---------------------------------0--------------0---------------|
E|-----------------3----------------------------------------------|

D9            F9
  Deixa esse medo pra lá
           D9                   Bb9
Melhor sorrir  Lá fora o tempo voa

             F            G                Am
Eu não devo nada a ninguém e nem quero o que não é meu
                F         G             Am
O que eu posso te oferecer é a voz que Deus me deu
            F         G              Am
Me deixa falar de amor de um jeito que só eu sei
           F           G             Am
Só quero te fazer feliz  só quero ficar com você

             F7M  G9        Am7
Eu não devo nada     a ninguém 
          F7M    G9         Am7
E nem quero o que não é meu
             F7M  G9      Am7
Eu só quero te   fazer feliz  
             F7M  G9       A
Eu só quero ficar   com você
Acordes para:
    Composição: Onze:20Colaboração e revisão:
    • Lucas Kappaun
    • Mateus
    • Felipe

    0 comentários

      mostrar mais comentários

      Conseguiu tocar?

      41tocaram0ainda não

      Grave um vídeo tocando Não Devo Nada e mande pra gente!

      00:00 / 00:00
      outros vídeos desta música
      repetirqualidadeautomática
      Outro vídeos desta música
        00:00 / 00:00
        automática
        OK