Cifra Club

Aprenda

Burden

Opeth

Cifra: Principal (violão e guitarra)
tom: F
(intro) Am Dm

e|--------------12-----------------------|-----------5----------------------------|
B|--------------13-----------------------|-----------5----------------------------|
G|----------------------14---------------|----------------------------------------|
D|----------14---------------------------|--------7-------------------------------|
A|--12--15-------------------------------|--5--8----------------------------------|
E|---------------------------------------|----------------------------------------|
              
Am       Dm      G
I   once upon a time
Gm        C        D
Carried a burden inside
Dm              C
Sung a last goodbye
  Dm     C9     G/B       Bb
A broken rhyme I had underlined
           C        A7         Dm G Bb A
There's an ocean of sorrow in you
  Dm      G Bb A
Sorrow in me

Am       Dm            G
Saw movement in their eyes
Gm          C              D
Said, I no longer knew the way
Dm           C
Given up the ghost
  Dm     C9     G/B       Bb
A passive mind submits to fear
       C          A7        Dm G Bb A
In the wait for redemption ahead
   Dm        G   Bb  D
Waiting to fade

(Solo de Órgão) Base:
Dm C

(Solo de Guitarra) Base:
Dm G Bb A

 Dm G Bb A
Fading again

Am       Dm             G
If death should take me now
Gm          C                D
Count my mistakes and let me through
Dm            C
Whisper in my ear
      Dm     C9     G/B       Bb
You've Taken more than we've received
        C        A7        Dm Bb Gm A
And the ocean of sorrow is you...

(Solos) Base:
Dm Bb Gm A


Final:

  F6                                    Dm9
e|-------------------------------------|-------0--1p--0-------------------------|
B|--3----3--------------3-----------3--|--3--------------3---------3------------|
G|----------2--------0-----0-----0-----|--------------------0S--2---------------|
D|--0----------0-----------------------|--0---------------------------3p--0-----|
A|----------------3--------------------|-------------------------------------0--|
E|----------------------------1--------|----------------------------------------|

 F6                                      Am     F        A
e|-------------------------------------|----------------------------x----|
B|--3----3--------------3-----------0--|--1--------------2--L----2--x----|
G|----------2--------0-----0-----0-----|--2--2-----2-----2-------2--x----|
D|--0----------0-----------------------|--------3--3-----2----------x----|
A|----------------3--------------------|--0--------3-----0----------x----|
E|----------------------------1--------|-----------1----------------x----|
Composição de Mikael Åkerfeldt
Colaboração e revisão:
  • Bruno Zimmermann
  • Carlos Eduardo
7.580 exibições
    • ½ Tom
    • A
    • Bb
    • B
    • C
    • Db
    • D
    • Eb
    • E
    • F
    • F#
    • G
    • Ab
  • Adicionar à lista

    0 comentários

    Ver todos os comentários
    00:00 / 00:00
    outros vídeos desta música
    repetir qualidade Automático
    Outros vídeos desta música
    00:00 / 00:00
    Automático

    Cifra Club Pro

    Aproveite o Cifra Club com benefícios exclusivos e sem anúncios
    Cifra Club Pro
    Aproveite o Cifra Club com benefícios exclusivos e sem anúncios
    OK