Cifra Club

17 de Janeiro

Os Arrais

Cifra: Principal (violão e guitarra)
Selo Cifra Club: esta cifra foi revisada para atender aos critérios oficiais da nossa Equipe de Qualidade.
tom: F# (forma dos acordes no tom de D) Capotraste na 4ª casa
Afinação: D A D F# A D

[Intro] D  D9  D  D11
        G7M(9)  G7M(5-)  G7M(9)

[Tab - Riff 1]

Parte 1 de 4
   D         D9        D           D11
E|-0-------0-0----0--0-0----0--0-0-0--0--0--|
B|-0-------0-0----0--0-0----0--0-0-0--0--0--|
G|-0-------0-0----0--0-0----0--0-0-0--0--0--|
D|-2h4-----4-4/2--2--2-2/4--4--4-4-5--5--0--|
A|-0---0---0-0----0--0-0----0--0-0-0--0--0--|
E|-0---0---0-0----0--0-0----0--0-0-0--0--0--|
   ↓   ↓   ↑ ↓     ↑  ↑ ↓    ↑  ↑ ↓ ↑   ↑  ↑

Parte 2 de 4
   G7M(9)        G7M(5-) G7M(9)
E|-0---0-4--4--4---------0--0-0-------------|
B|-0---0-0--0--0-4--4--4-0--0-0-------------|
G|-0---0-0--0--0-0--0--0-0--0-0-------------|
D|-0---0-0--0--0-0--0--0-0--0-0-------------|
A|-x---x-x--x--x-x--x--x-x--x-x-------------|
E|-5---5-5--5--5-5--5--5-5--5-5-------------|
   ↓   ↑ ↓  ↑   ↑ ↓  ↑  ↑ ↓  ↑  ↑

Parte 3 de 4
   D         D9        D           D11
E|-0----0--0-0----0--0-0----0--0-0-0--0-0-0-|
B|-0----0--0-0----0--0-0----0--0-0-0--0-0-0-|
G|-0----0--0-0----0--0-0----0--0-0-0--0-0-0-|
D|-2h4--4--4-4/2--2--2-2/4--4--4-4-5--5-5-4-|
A|-0----0--0-0----0--0-0----0--0-0-0--0-0-0-|
E|-0----0--0-0----0--0-0----0--0-0-0--0-0-0-|
   ↓    ↑  ↑  ↓    ↑  ↑ ↓    ↑  ↑  ↓ ↑  ↑ ↓ ↑

Parte 4 de 4
   G7M(9)           G7M(5-) G7M(9)
E|-0---0--0-4--4--4---------0--0-0----------|
B|-0---0--0-0--0--0-4--4--4-0--0-0----------|
G|-0---0--0-0--0--0-0--0--0-0--0-0----------|
D|-0---0--0-0--0--0-0--0--0-0--0-0----------|
A|-x---x--x-x--x--x-x--x--x-x--x-x----------|
E|-5---5--5-5--5--5-5--5--5-5--5-5----------|
   ↓   ↑  ↑ ↓   ↑  ↑ ↓  ↑  ↑  ↓  ↑ ↑

[Primeira Parte]

[Tab - Riff 2]

   D       D/C#    Bm7     D/A
E|-0--0--0-0--0--0-0--0--0-0--0--0----------|
B|-0--0--0-0--0--0-0--0--0-0--0--0----------|
G|-0--0--0-0--0--0-0--0--0-0--0--0----------|
D|-0--0--0-0--0--0-0--0--0-0--0--0----------|
A|-0--0--0-4--4--4-2--2--2-0--0--0----------|
E|-0--0--0----------------------------------|
   ↓  ↑  ↑  ↓  ↑  ↑ ↓  ↑  ↑  ↓  ↑  ↑

   G7M(9)           G7M(5-) G7M(9)
E|-0---0--0-4--4--4---------0--0-0----------|
B|-0---0--0-0--0--0-4--4--4-0--0-0----------|
G|-0---0--0-0--0--0-0--0--0-0--0-0----------|
D|-0---0--0-0--0--0-0--0--0-0--0-0----------|
A|-x---x--x-x--x--x-x--x--x-x--x-x----------|
E|-5---5--5-5--5--5-5--5--5-5--5-5----------|
   ↓   ↑  ↑ ↓   ↑  ↑ ↓  ↑  ↑ ↓   ↑ ↑

Riff 1  D                       G
Eu   olhei a tristeza nos olhos e sorri
        D
Mesmo quebrantado
          G
Pela vida   que escolhi
Riff 2  D         G  
       Da janela eu vi
   D          G
Cada estação fugir

[Segunda Parte]

        D
Como as árvores eu permaneço
       G
No mesmo lugar
      D
No outono, no inverno
                  G
Eu espero primavera chegar

 D          G
Da estrada eu quis
   D               G
Retornar pra onde parti

[Terceira Parte]

       D
Da distância avistei
              G
A alegria e a esperança
       D
Das migalhas que desperdiçamos
   G
Faremos jantar
 D          G
Eu voltaria atrás
     D          G
Pra tentar me avisar

[Refrão]

         Em7(11)   G7M(9)
Que o caminho será escuro
          Em7(11)       G7M(9)
Mas que Cristo é a luz do mundo
      Em7(11)   G7M(9)       A11
Deixe Ele te falar quem você é

         Em7(11)  G7M(9)
Que a Palavra te desfaça
         Em7(11)   G7M(9)
Que te afogue em Sua graça
       Em7(11)    G7M(9)    A11
Só a cruz esconderá quem você não é

( Em7(11)  G7M(9)  Em7(11)  G7M(9) )
( Em7(11)  G7M(9)  A11 )
( Em7(11)  G7M(9)  Em7(11)  G7M(9) )
( Em7(11)  G7M(9)  A11 )

[Final]

      D                       G       D
Eu olhei a tristeza nos olhos e sorri
00:00 / 00:00
Outros vídeos desta música
Repetir
Outros vídeos desta música
301.631 exibições
  • Simplificar cifra
    • ½ Tom
    • A
    • Bb
    • B
    • C
    • Db
    • D
    • Eb
    • E
    • F
    • F#
    • G
    • Ab
  • Adicionar à lista

Afinação da cifra

Afinador online

    0 comentários

    Ver todos os comentários

    Entre para o Cifra Club PRO

    Tenha acesso a benefícios exclusivos no App e no Site

    • Chega de anúncios

    • Mais recursos no app do Afinador

    • Atendimento Prioritário

    • Aumente seu limite de lista

    • Ajude a produzir mais conteúdo

    00:00 / 00:00

    Cifra Club Pro

    Aproveite o Cifra Club com benefícios exclusivos e sem anúncios
    Cifra Club Pro
    Aproveite o Cifra Club com benefícios exclusivos e sem anúncios
    OK