Cifra Club

17 de Janeiro

Os Arrais

Cifra: Principal (violão e guitarra)
tom: C
Afinação: D  A  D  F#  A  D

[Intro]

        A#/G#           C#/G#               F/G#    C/G#      G/G#
E|------------------------------------------6---10---10---6----6----6---|
B|------------------------------------------6---6----6----10---10-6-10--|
G|--6----6----6-6---6---------6---------------6-6-------6-6----6----6---|
D|--8h10---10-8---8-11---11---11---11---6-------6---------6---------6---|
A|--6---------6-----6--6----6-6--6----6-6-6-----6--6------6--6------6---|
E|--6---------6-----6---------6---------11------11--------11--------11--|

     G#5  A#/G#  D/G# C#/G#  F/G#  C/G#  G/G# C9/G# F9/G#  Em    A#    D#
E|--6--|--6--|--6--|--6--|--6--|--6--|--6--|--6--|--6--|--6--|--6--|--6--|
B|--6--|--6--|--6--|--6--|--6--|--13-|--6--|--6--|--6--|--6--|--6--|--6--|
G|--6--|--6--|--6--|--6--|--6--|--6--|--12-|--6--|--6--|--6--|--6--|--6--|
D|--6--|--8--|--11-|--10-|--6--|--6--|--6--|--6--|--6--|--6--|--6--|--6--|
A|--6--|--6--|--6--|--6--|--6--|--6--|--6--|--11-|--10-|--8--|--8--|--13-|
E|--6--|--6--|--6--|--6--|--11-|--11-|--11-|--6--|--6--|--6--|--8--|--13-|

[Riff]

       A#/G#  D/G#
E|------------|
B|------------|
G|------------|
D|--8/11--11--|
A|--6-----6---|
E|--6-----6---|


    G#5         A#/G#        C#/G#
Eu olhei a tristeza nos olhos
F/G# D/G#      G/G#
     E eu sorri
      G#5    A#/G#
Mesmo quebrantado pela vida
F/G# C/G#       G/G#
     Que escolhi
C9/G#   F9/G# Em    G#5 F/G# C/G# G/G#
    Da já_____nela eu       vi
C9/G# F9/G#  Em    G#5 F/G#   C/G# G/G#
Ca____da    esta__ção     fugir

       A#/G#            Riff D/G#        F/G# C/G# G/G#
Como as árvores eu permaneço no mesmo lugar
     G#5        A#/G#                  C#/G#    F/G# C/G# G/G#
No outono, no inverno, eu espero primavera chegar

C9/G#   F9/G# Em    G#5 F/G# C/G# G/G#
    Da es____trada eu    quis
  C9/G# F9/G#     Em    G#5 F/G# C/G# G/G#
Retor___nar para on____de      parti.
      A#/G#       C/G#     C#/G#   D/G#  F/G# C/G# G/G#
Da distância avistei a alegria e a espe__rança
      A#/G#               F/G#      D/G#  F/G# C/G# G/G#
Das migalhas que desperdiçamos, faremos janta
C9/G# F9/G#  Em G#5 F/G#    C/G# G/G#
Eu    vol____ta_ria    atrás
    C9/G# F9/G# Em G#5 F/G# C/G# G/G#
Pra ten___tar  me        avisar

[Refrão]

       A#            F/G#
Que o caminho será escuro
        A#                F/G#
Mas que Cristo é a luz do mundo
      A#       F/G#          D#
Deixe Ele te falar quem você é
        A#          F/G#
Que a palavra te desfaça
        A#           F/G#
Que te afogue em Sua graça
     A#         F/G#       D#
Só a cruz esconderá quem você não é

    G#5         A#/G#        C#/G#
Eu olhei a tristeza nos olhos
F/G# D/G#      G/G# A#/G#
     E eu sorri
00:00 / 00:00
Outros vídeos desta música
Repetir
Outros vídeos desta música
Composição de André / Tiago Arrais
Colaboração e revisão:
219.590 exibições
  • Simplificar cifra
    • ½ Tom
    • A
    • Bb
    • B
    • C
    • Db
    • D
    • Eb
    • E
    • F
    • F#
    • G
    • Ab
  • Adicionar à lista

    0 comentários

    Ver todos os comentários

    Entre para oCifra Club PRO

    Tenha acesso a benefícios exclusivos no App e no Site

    • Chega de anúncios

    • Prioridade de compra em lançamentos

    • Mais recursos no app do Afinador

    • Atendimento Prioritário

    • Descontos nos produtos Cifra Club

    • Ajude a produzir mais conteúdo

    00:00 / 00:00

    Cifra Club Pro

    Aproveite o Cifra Club com benefícios exclusivos e sem anúncios
    Cifra Club Pro
    Aproveite o Cifra Club com benefícios exclusivos e sem anúncios
    OK