Cifra Club

21

Os Arrais

Cifra: Principal (violão e guitarra)
tom: D
[Intro] D A D F# A D

(Riff 1)

E|-----4--0p2p0------------0------4----0p2p0---------4----------|
B|----0---0-----4--0p2--4--------0-----0-----4--0p2-----4-------|
G|---0----0---------------------0------0------------------------|
D|--------------------------------------------------------------|
A|--------------------------------------------------------------|
E|--0-----0---0-----0---------0--------0-----0------------------|

E|----------0---0------------0---0---|
B|------4----------------4-----------|
G|-----0--0---0---------0--0---0-----|
D|----0----------------0-------------|
A|---2----------------2--------------|
E|-----------------------------------|

E|---------4---4------------4-----4--------|
B|-------0---------------0-----------------|
G|-----0-----0--------0--------0-----------|
D|-----------------------------------------|
A|-----------------------------------------|
E|-4-5-------------5-----------------------|

(Riff 1)
O bebê de belém, homem de dor
(Riff 1)                        E4   E
Consolação de israel, rei das nações
Em        G   A
A semente prometida

D            G          E4   E       G     A
Príncipe da     paz, o caminho, a verdade e vida
D            G              E4   E               G
Deus conosco,   cordeiro de   Deus, meu redentor
  A
Meu Jesus

(Riff 1)
O leão de judá, yeshua
(Riff 1)
Meu juiz, mediador, pão do céu
Em        G      A
A palavra se fez carne

D            G          E4   E       G     A
Príncipe da     paz, o caminho, a verdade e vida
D            G              E4   E               G
Deus conosco,   cordeiro de   Deus, meu redentor
  A
Meu Jesus

Em        G   A
O messias esperado

D            G          E4   E       G     A
Príncipe da     paz, o caminho, a verdade e vida
D            G              E4   E               G
Deus conosco,   cordeiro de   Deus, meu salvador
  A
Meu Jesus
00:00 / 00:00
Outros vídeos desta música
Repetir
Outros vídeos desta música
Composição de Tiago Arrais
Colaboração e revisão:
  • Mariana Ferreira
  • Claudio Cavallari
  • Keviin Louiis
35.508 exibições
    • ½ Tom
    • A
    • Bb
    • B
    • C
    • Db
    • D
    • Eb
    • E
    • F
    • F#
    • G
    • Ab
  • Adicionar à lista

    0 comentários

    Ver todos os comentários

    Entre para oCifra Club PRO

    Tenha acesso a benefícios exclusivos no App e no Site

    • Chega de anúncios

    • Prioridade de compra em lançamentos

    • Mais recursos no app do Afinador

    • Atendimento Prioritário

    • Descontos nos produtos Cifra Club

    • Ajude a produzir mais conteúdo

    00:00 / 00:00

    Cifra Club Pro

    Aproveite o Cifra Club com benefícios exclusivos e sem anúncios
    Cifra Club Pro
    Aproveite o Cifra Club com benefícios exclusivos e sem anúncios
    OK