Cifra Club

Barco do Amor

Os Atuais

Cifra: Principal (violão e guitarra)
tom: F
Intro: F  Bb  F  C  F

F             Bb    F
Navegando nas ondas do mar eu vou
Bb                      F
Meu destino eu vou seguir
F               C        F       Dm
No meu barco eu vou cantando o amor
                     C
Que levo dentro de mim

F              Bb               F
No azul do céu vejo o sol brilhar
                     C
Pensamentos vão pro ar
F               Bb          F
Só você, só você que sei amar
Bb                 C
Vai meu barco a navegar
Bb                  F
Vai meu barco a navegar

( F  Bb  F  C  F ) (2x)

F              Bb    F
Nem frio nem o vento me faz parar
Bb                  F
Meu destino é navegar
F          C         F         Dm
Eu só sei que serei feliz meu bem
                       C
Quando em terra eu pisar

F              Bb               F
No azul do céu vejo o sol brilhar
                     C
Pensamentos vão pro ar
F               Bb          F
Só você, só você que sei amar
Bb                 C
Vai meu barco a navegar
Bb                  F
Vai meu barco a navegar
G|-----------------------------------10-10--------10-10--------10-09--10--12-|
D|-07--08--08/10--10-10/12--12--10-----------10------------10----------------|
A|---------------------------------------------------------------------------|
E|---------------------------------------------------------------------------|

G|--10--12-12/14-----------14-14-14-14\12-----12b14r12--10----|
D|------------------------------------------------------------|
A|------------------------------------------------------------|
E|------------------------------------------------------------|

G|--10-10-10-10-10-10--09-10-10/12-12-12-10-10-10h12----12--10|
D|------------------------------------------------------------|
A|------------------------------------------------------------|
E|------------------------------------------------------------|

G|--10-11-12--|
D|------------|
A|------------|
E|------------|

G              C                G
No azul do céu vejo o sol brilhar
                     D
Pensamentos vão pro ar
G               C          G
Só você, só você que sei amar
C                 D
Ao seu lado quero estar
C                  G
Ao seu lado quero estar
00:00 / 00:00
Outros vídeos desta música
Repetir
Outros vídeos desta música
Compositor não encontrado.
Colaboração e revisão:
  • Jaisson Burin
  • NELSON JAHN
  • André Soberanski
75.326 exibições
    • ½ Tom
    • A
    • Bb
    • B
    • C
    • Db
    • D
    • Eb
    • E
    • F
    • F#
    • G
    • Ab
  • Adicionar à lista

    0 comentários

    Ver todos os comentários

    Entre para oCifra Club PRO

    Tenha acesso a benefícios exclusivos no App e no Site

    • Chega de anúncios

    • Prioridade de compra em lançamentos

    • Mais recursos no app do Afinador

    • Atendimento Prioritário

    • Descontos nos produtos Cifra Club

    • Ajude a produzir mais conteúdo

    00:00 / 00:00

    Cifra Club Pro

    Aproveite o Cifra Club com benefícios exclusivos e sem anúncios
    Cifra Club Pro
    Aproveite o Cifra Club com benefícios exclusivos e sem anúncios
    OK