Cifra Club

Cordeirinho

Os Morenos

Cifra: Principal (violão e guitarra)
Tom: G
Intro:

E|-15--14------|--12----------|------------------------|---------------------------|
B|----------12-|-------15-----|--------13-12-13-12-13--|--------13-12-13-12-13---15|
G|-------------|----------14--|-14--16-----------------|-14--16--------------------|
D|-------------|--------------|------------------------|---------------------------|
A|-------------|--------------|------------------------|---------------------------|
E|-------------|--------------|------------------------|---------------------------|
    


 G                  Am                     G
Não vou negar, eu faço jus a fama de ser mulherengo
         Am                                 G     E7
Mas todo homem um dia tem que encontrar seu dengo
           Am               D7       D7  Am
E o meu denguinho, minha lindinha é você
         G    E7 - Am - D7
Sabe por quê?
G         Am              Bm
Você tira onda no meu coração
             Am               G  E7
Você deita e rola na minha paixão
        Am            D7            G     E7
Em suas mãos me sinto como um cordeirinho
       Am                D7          G    E7
Fico manhoso quando você me faz um carinho
        Am         D7             G
Sou dominado e amarrado em teu prazer




   E||---7--5--3--0--7--5--0--3-|
   B||--------------------------|
   G||--------------------------|
   D||--------------------------| 
   A||--------------------------|
   E||--------------------------|
   


   Am                      D7                       G   Em
Eu nego pros amigos quando dizem que eu estou apaixonado
    Am                           D7                         G         E7
Mas vêem nos meus olhos nasce um brilho diferente quando eu vou te ver
             Am  D7        Bm  E7
Não dá pra negar, eu amo você
             Am  D7        G
Não dá pra negar, eu amo você (te amo demais)
   G       Am    Bm         E7
Te amo, te amo demais, meu bem
   Am                    D7                    G    D7
Gostoso é saber que você gosta assim de mim também
exibições 1.670
Acordes para:
    Composição: Wagner Bastos Colaboração e revisão:
    • Jo

    0 comentários

    mostrar mais comentários

    Conseguiu tocar?

    1 tocaram 0 ainda não

    Grave um vídeo tocando Cordeirinho e mande pra gente!

    00:00 / 00:00
    outros vídeos desta música
    repetir qualidade Automático
    Outros vídeos desta música
    00:00 / 00:00
    Automático
    OK