Cifra Club

Aprenda

Ghostflowers

Otep

Cifra: Principal (violão e guitarra)
tom: F# (forma dos acordes no tom de G) Afinação: Eb Ab Db Gb Bb Eb
||------------|----------|------------|---------||--------|
||o-----------|----------|------------|--------o||--------|
||--6----6----|-6--------|-(6)--------|-(6)-----||-(6)----|
||--4----4----|-4--------|-(4)--------|-(4)-----||-(4)----|
||o-4----4----|-5--------|-(5)--------|-(5)----o||-(5)----|
||------------|----------|------------|---------||--------|


                                                                3x
||--------------|-------------|---------------|---------------||
||o-------------|-------------|---------------|--------------o||
||--------6-----|-------------|---------6-----|---------------||
||-----4-----4--|----4--------|------4-----4--|----4-----4----||
||o-4-----------|-4-----4--5--|-(5)-----------|-5-----5------o||
||--------------|-------------|---------------|---------------||



|-------------|-------------|------------|--------|
|-------------|-------------|------------|--------|
|-------6-----|-6-----------|------------|--------|
|----4-----4--|----4--------|------------|--------|
|-6-----------|-------6--5--|-(5)--------|--------|
|-------------|-------------|------------|--------|


                                                              3x
||--------------|-------------|---------------|---------------||
||o-------------|-------------|---------------|--------------o||
||--------6-----|-------------|---------6-----|---------------||
||-----4-----4--|----4--------|------4-----4--|----4-----4----||
||o-4-----------|-4-----4--5--|-(5)-----------|-5-----5------o||
||--------------|-------------|---------------|---------------||



||--------------|-------------|------------|---------||
||o-------------|-------------|------------|--------o||
||--------6-----|-6-----------|------------|---------||
||-----4-----4--|----4--------|------------|---------||
||o-6-----------|-------6--5--|-(5)--------|--------o||
||--------------|-------------|------------|---------||



|-------------|--------------|------------|--------|
|-------------|--------------|------------|--------|
|-6----6------|-6--6------6--|-(6)--------|--------|
|-4----4------|-4--4------4--|-(4)--------|--------|
|-6----6------|-6--6------5--|-(5)--------|--------|
|-------------|--------------|------------|--------|


           8x
||--------||
||o------o||
||--------||
||--------||
||o------o||
||--------||



||---------------------|--------------|--------------------|--------------||
||o--------------------|--------------|--------------------|-------------o||
||--10\9-9-10\9-9-10\9-|-10\9---------|-10\9-9-10\9-9-10\9-|-10/12--------||
||---------------------|--------------|--------------------|--------------||
||o--8\7-7--8\7-7--8\7-|--8\7---------|--8\7-7--8\7-7--8\7-|--8/10-------o||
||---------------------|--------------|--------------------|--------------||



||---------------------|--------------------|--------------------|----------------------||
||o--------------------|--------------------|--------------------|---------------------o||
||--10\9-9-10\9-9-10\9-|-9-10\9-9-10\9-12\9-|-10\9-9-10\9-9-10\9-|-9-12\9-9-10\9-12\9---||
||---------------------|--------------------|--------------------|----------------------||
||o--8\7-7--8\7-7--8\7-|-7--8\7-7--8\7-10\7-|--8\7-7--8\7-7--8\7-|-7-10\7-7--8\7-10\7--o||
||---------------------|--------------------|--------------------|----------------------||


                                                                                                  4x
||--------------------|-------------------------|-------------------|-----------------------------||
||o-------------------|-------------------------|-------------------|----------------------------o||
||--9-9-9-9-9-9-10-10-|-10-13-13-13-14-14-16-16-|-9-9-9-9-9-9-10-10-|-10-14-14-14-13h14p13-10-10--||
||--------------------|-------------------------|-------------------|-----------------------------||
||o-------------------|-------------------------|-------------------|----------------------------o||
||--------------------|-------------------------|-------------------|-----------------------------||
|
                                                                                                  4x
||--------------------|-------------------------|-------------------|-----------------------------||
||o-------------------|-------------------------|-------------------|----------------------------o||
||--9-9-9-9-9-9-10-10-|-10-13-13-13-14-14-16-16-|-9-9-9-9-9-9-10-10-|-10-14-14-14-13----13-10-10--||
||--------------------|-------------------------|-------------------|-----------------------------||
||o-7-7-7-7-7-7--8--8-|--8-11-11-11-12-12-14-14-|-7-7-7-7-7-7--8--8-|--8-12-12-12-11----11--8--8-o||
||--------------------|-------------------------|-------------------|-----------------------------||


|----------------|----------------|----------------|----------------|
|----------------|----------------|----------------|----------------|
|----------------|----------------|----------------|----------------|
|-0h2----2--0-3--|-(3)--3---------|-0h2----2--0-5--|-(5)--5--2-2-0--|
|-0h2----2--0-3--|-(3)--3--0-0----|-0h2----2--0-5--|-(5)--5--2-2-0--|
|-0h2----2--0-3--|-(3)--3--0-0----|-0h2----2--0-5--|-(5)--5--2-2-0--|

|----------------|----------------|----------------|----------------|
|----------------|----------------|----------------|----------------|
|----------------|----------------|----------------|----------------|
|-0h2----2--0-3--|-(3)--3---------|-0h2----2--0-5--|-(5)--5--2-2----|
|-0h2----2--0-3--|-(3)--3--0-0----|-0h2----2--0-5--|-(5)--5--2-2----|
|-0h2----2--0-3--|-(3)--3--0-0----|-0h2----2--0-5--|-(5)--5--2-2----|


        PM|       PM|         PM|       PM      4x
||----------------------|----------------------||
||o---------------------|---------------------o||
||----------------------|----------------------||
||----------------------|----------------------||
||o-2-2-------2-2-------|-2-2-------2-2-------o||
||--2-2-2h3p2-2-2-2h3p2-|-2-2-2h3p2-2-2-2h3p2--||


                                                                        4x
||-----------------|----------------|----------------|------------------||
||o----------------|----------------|----------------|-----------------o||
||-----------------|----------------|----------------|------------------||
||--0h2----2--0-3--|-0h2----2--0-3--|-0h2----2--0-3--|-0h2----2--0-3----||
||o-0h2----2--0-3--|-0h2----2--0-3--|-0h2----2--0-3--|-0h2----2--0-3---o||
||--0h2----2--0-3--|-0h2----2--0-3--|-0h2----2--0-3--|-0h2----2--0-3----||



|-----------|-------------|----------|------|
|-----------|-------------|----------|------|
|-----------|-------------|----------|-9----|
|-10--------|-(10)--------|-9--------|-9----|
|-10--------|-(10)--------|-9--------|-7----|
|-10--------|-(10)--------|-9--------|------|

    PM|       PM|         PM|       PM      PM|       PM|         PM|       PM
||----------------------|---------------------|---------------------|-----------------------||
||o---------------------|---------------------|---------------------|----------------------o||
||----------------------|---------------------|---------------------|-----------------------||
||----------------------|---------------------|---------------------|-----------------------||
||o-2-2-------2-2-------|-2-2-------2-2-------|-2-2-------2-2-------|-2-2-------2-2--------o||
||--2-2-2h3p2-2-2-2h3p2-|-2-2-2h3p2-2-2-2h3p2-|-2-2-2h3p2-2-2-2h3p2-|-2-2-2h3p2-2-2-2h3p2---||


||-------------------||-||---------------------------------------------------||
||o-----------------o||-||o-------------------------------------------------o||
||-------------------||-||---------------------------------------------------||
||-------------------||-||--10-10-10-10-10-10-10-10-10-10-10-10-10-10-10-10--||
||o-2-2-2-2-2-2-2-2-o||-||o--8--8--8--8--8--8--8--8--8--8--8--8--8--8--8--8-o||
||--2-2-2-2-2-2-2-2--||-||---------------------------------------------------||



||--------------------|-------------------------|-------------------|-----------------------------||
||o-------------------|-------------------------|-------------------|----------------------------o||
||--9-9-9-9-9-9-10-10-|-10-13-13-13-14-14-16-16-|-9-9-9-9-9-9-10-10-|-10-14-14-14-13h14p13-10-10--||
||--------------------|-------------------------|-------------------|-----------------------------||
||o-------------------|-------------------------|-------------------|----------------------------o||
||--------------------|-------------------------|-------------------|-----------------------------||
|

||--------------------|-------------------------|-------------------|-----------------------------||
||o-------------------|-------------------------|-------------------|----------------------------o||
||--9-9-9-9-9-9-10-10-|-10-13-13-13-14-14-16-16-|-9-9-9-9-9-9-10-10-|-10-14-14-14-13----13-10-10--||
||--------------------|-------------------------|-------------------|-----------------------------||
||o-7-7-7-7-7-7--8--8-|--8-11-11-11-12-12-14-14-|-7-7-7-7-7-7--8--8-|--8-12-12-12-11----11--8--8-o||
||--------------------|-------------------------|-------------------|-----------------------------||



|-------------|-------------|-----------------------|-------------|
|-12----------|-13----------|-16--------15----13----|-12----------|
|-------------|-------------|-----------------------|-------------|
|-------------|-------------|-----------------------|-------------|
|-------------|-------------|-----------------------|-------------|
|-------------|-------------|-----------------------|-------------|
|
| Gtr III
|  TP            TP            TP        TP    TP      TP
|  W             W             H         Q     Q       W
|-------------|-------------|-----------------------|-------------|
|-------------|-------------|-----------------------|-------------|
|-------------|-------------|-----------------------|-------------|
|-------------|-------------|-----------------------|-------------|
|--7----------|--8----------|-11--------10-----8----|--7----------|
|-------------|-------------|-----------------------|-------------|


  Gtr II

|------------|---------------------|-------------|-------------|
|-9----------|-10------12----13----|-12----------|-------------|
|------------|---------------------|-------------|-------------|
|------------|---------------------|-------------|-------------|
|------------|---------------------|-------------|-------------|
|------------|---------------------|-------------|-14\---------|

| Gtr III
|------------|---------------------|-------------|-------------|
|------------|---------------------|-------------|-------------|
|------------|---------------------|-------------|-------------|
|------------|---------------------|-------------|-------------|
|-4----------|--5-------7-----8----|--7----------|-------------|
|------------|---------------------|-------------|-14\---------|


    Gtr II
|                                                                                               4x
||--------------------|-------------------------|-------------------|---------------------------||
||o-------------------|-------------------------|-------------------|--------------------------o||
||--9-9-9-9-9-9-10-10-|-10-10-10-10-10-10-12-12-|-9-9-9-9-9-9-12-12-|-12-12-12-12-12-12-10-10---||
||--------------------|-------------------------|-------------------|---------------------------||
||o-7-7-7-7-7-7--8--8-|--8--8--8--8--8--8-10-10-|-7-7-7-7-7-7-10-10-|-10-10-10-10-10-10--8--8--o||
||--------------------|-------------------------|-------------------|---------------------------||
|
|   Gtr III           |                         |                   |                           ||
                                                                                                4x
||--------------------|-------------------------|-------------------|---------------------------||
||o-------------------|-------------------------|-------------------|--------------------------o||
||--------------------|-------------------------|-------------------|---------------------------||
||--2-2-2-2-2-2--3--3-|--3--3--3--3--3--3--5--5-|-2-2-2-2-2-2--5--5-|--5--5--5--5--5--5--3--3---||
||o-2-2-2-2-2-2--3--3-|--3--3--3--3--3--3--5--5-|-2-2-2-2-2-2--5--5-|--5--5--5--5--5--5--3--3--o||
||--2-2-2-2-2-2--3--3-|--3--3--3--3--3--3--5--5-|-2-2-2-2-2-2--5--5-|--5--5--5--5--5--5--3--3---||



||---------------------|--------------------|--------------------|----------------------||
||o--------------------|--------------------|--------------------|---------------------o||
||--10\9-9-10\9-9-10\9-|-9-10\9-9-10\9-12\9-|-10\9-9-10\9-9-10\9-|-9-12\9-9-10\9-12\9---||
||---------------------|--------------------|--------------------|----------------------||
||o--8\7-7--8\7-7--8\7-|-7--8\7-7--8\7-10\7-|--8\7-7--8\7-7--8\7-|-7-10\7-7--8\7-10\7--o||
||---------------------|--------------------|--------------------|----------------------||


                                       4x
||------------------|------------------||
||o-----------------|-----------------o||
||------------------|------------------||
||--3-3-3-2-2-2-5-5-|-5-3-3-3-2-0-2-0--||
||o-3-3-3-2-2-2-5-5-|-5-3-3-3-2-0-2-0-o||
||--3-3-3-2-2-2-5-5-|-5-3-3-3-2-0-2-0--||



||-----------------|----------------|----------------|------------------||
||o----------------|----------------|----------------|-----------------o||
||-----------------|----------------|----------------|------------------||
||--0h2----2--0-3--|-0h2----2--0-3--|-0h2----2--0-3--|-0h2----2--0-3----||
||o-0h2----2--0-3--|-0h2----2--0-3--|-0h2----2--0-3--|-0h2----2--0-3---o||
||--0h2----2--0-3--|-0h2----2--0-3--|-0h2----2--0-3--|-0h2----2--0-3----||


                                        4x
||------------------|------------------||
||o-----------------|-----------------o||
||------------------|------------------||
||------------------|------------------||
||o-----------------|-----------------o||
||--0h2-2p0h2p0h2h3-|-0h2-2p0h2p0h3p2--||



|------------|------------|
|------------|------------|
|-5----------|-(5)--------|
|-5----------|-(5)--------|
|-3----------|-(3)--------|
|------------|------------|

  PM|       PM|         PM|       PM|
|---------------------|---------------------|-----------*|
|---------------------|---------------------|-----------*|
|---------------------|---------------------|-----------*|
|---------------------|---------------------|-2-2-------*|
|-2-2-------2-2-------|-2-2-------2-2-------|-2-2-------*|
|-2-2-2h3p2-2-2-2h3p2-|-2-2-2h3p2-2-2-2h3p2-|-2-2-------*|
Composição de Brian Wolff / Jason McGuire / Karma Cheema / Otep Shamaya
Colaboração e revisão:
  • Vitøria Førsberg
342 exibições
    • ½ Tom
    • A
    • Bb
    • B
    • C
    • Db
    • D
    • Eb
    • E
    • F
    • F#
    • G
    • Ab
  • Adicionar à lista

    0 comentários

    Ver todos os comentários

    Conseguiu tocar?

    0 Tocaram 0 Ainda não

    Grave um vídeo tocando Ghostflowers e nos envie!

    00:00 / 00:00
    Outros vídeos desta música
    Repetir Qualidade Automático
    Outros vídeos desta música
    00:00 / 00:00
    Automático

    Cifra Club Pro

    Aproveite o Cifra Club com benefícios exclusivos e sem anúncios
    Cifra Club Pro
    Aproveite o Cifra Club com benefícios exclusivos e sem anúncios
    OK