Cifra Club

Crumblin Erb

OutKast

Cifra: Principal (violão e guitarra)
Selo Cifra Club: esta cifra foi revisada para atender aos critérios oficiais da nossa Equipe de Qualidade.
tom: Bm
Chords:
E|-2-----0-------0-|
B|-3-----1-------7-|
G|-2-----0-------6-|
D|-4-----2-------7-|
A|-2-----0-------5-|
E|-x-----x-------x-|
  Bm7   Am7   Dmaj7 

Whole song: Bm7 Am7 Dmaj7

Chorus (organ follows vocal part):
E|---------------------------------------------------------------|
B|----------8h10-------------------------------------------------|
G|-9-11-9-11-----11-9-7-9-7-9b--------7-7-7------7-7-7-----------|
D|--------------------------------7h9------9--7h9-----9----------|
A|---------------------------------------------------------------|
E|---------------------------------------------------------------|

On the "9b" bend the shit out of that to have "Crazy world" sound good.

Organ flourish during chorus:
E|-----------------|
B|-10h12-----------|
G|------11h12--9-7-|
D|-----------------|
A|-----------------|
E|-----------------|
Outros vídeos desta música
    7 exibições
      • ½ Tom
      • Am
      • Bbm
      • Bm
      • Cm
      • C#m
      • Dm
      • Ebm
      • Em
      • Fm
      • F#m
      • Gm
      • G#m
    • Adicionar à lista

    Afinação da cifra

    Afinador online

      0 comentários

      Ver todos os comentários

      Entre para o Cifra Club PRO

      Tenha acesso a benefícios exclusivos no App e no Site

      • Chega de anúncios

      • Badges exclusivas

      • Mais recursos no app do Afinador

      • Atendimento Prioritário

      • Aumente seu limite de lista

      • Ajude a produzir mais conteúdo

      Cifra Club Pro

      Aproveite o Cifra Club com benefícios exclusivos e sem anúncios
      Cifra Club Pro
      Aproveite o Cifra Club com benefícios exclusivos e sem anúncios
      Ops (: Contenido disponible sólo en portugués.
      OK