Cifra Club

Prototype

OutKast

Cifra: Principal (violão e guitarra)
Selo Cifra Club: esta cifra foi revisada para atender aos critérios oficiais da nossa Equipe de Qualidade.
tom: Dm
E|----------------------|-----------|-3h5-3~-----7/8~-----7~--|-----------|
B|-3h5-3~-----5~--------|-----------|-------------------------|-----------|
G|------------------4~--|-----------|-------------------------|-----------|
D|----------------------|-----------|-------------------------|-----------|
A|----------------------|-----------|-------------------------|-----------|
E|----------------------|-----------|-------------------------|-----------|

E|----------------------|-----------|-3h5-3~-----7/8~-----7~--|----7\-----|
B|-3h5-3~-----5~--------|-----------|-------------------------|-----------|
G|------------------4~--|-----------|-------------------------|-----------|
D|----------------------|-----------|-------------------------|-----------|
A|----------------------|-----------|-------------------------|-----------|
E|----------------------|-----------|-------------------------|-----------|

Use a fair amount of reverb and bridge pickup for twang.


Rhythm Guitar Chords

   Dmaj9   Amaj9    Dm9     Am9
E|---0---|---0---|---0---|---0---|
B|---7---|---0---|---6---|---0---|
G|---6---|---6---|---5---|---5---|
D|---7---|---6---|---7---|---5---|
A|---5---|---0---|---5---|---0---|
E|-------|-------|-------|-------|
Outros vídeos desta música
    191 exibições
      • ½ Tom
      • Am
      • Bbm
      • Bm
      • Cm
      • C#m
      • Dm
      • Ebm
      • Em
      • Fm
      • F#m
      • Gm
      • G#m
    • Adicionar à lista

    Afinação da cifra

    Afinador online

      0 comentários

      Ver todos os comentários

      Entre para o Cifra Club PRO

      Tenha acesso a benefícios exclusivos no App e no Site

      • Chega de anúncios

      • Badges exclusivas

      • Mais recursos no app do Afinador

      • Atendimento Prioritário

      • Aumente seu limite de lista

      • Ajude a produzir mais conteúdo

      Cifra Club Pro

      Aproveite o Cifra Club com benefícios exclusivos e sem anúncios
      Cifra Club Pro
      Aproveite o Cifra Club com benefícios exclusivos e sem anúncios
      Ops (: Contenido disponible sólo en portugués.
      OK