Cifra Club

Illusion

Ozielzinho

Cifra: Principal (violão e guitarra)
tom: C
E|----------------------|---------------------|------------------------------|
B|----------------------|-----------6s-8---8--|-----6h-8p-6p-5--6~-----------|
G|-----------5-----5--7-|--7b--7b~------------|------------------------------|
D|------5h-7-----7------|---------------------|------------------------------|
A|-5/7------------------|---------------------|------------------------------|
E|----------------------|---------------------|------------------------------|

E|--------------------------|--5s-7---8---------------|-----------------8--10--8--|
B|--------------5-----5--8--|------------5~-----------|-------5--8--10------------|
G|--------5h-7-----7--------|-------------------------|---------------------------|
D|---5/7--------------------|-------------------------|---------------------------|
A|--------------------------|-------------------------|---------------------------|
E|--------------------------|-------------------------|---------------------------|

E|--10--L--8h-10-----------13p-10-|----------------------------|
B|--------------------------------|--------------13br----13br--|
G|--------------------------------|----------------------------|
D|--------------------------------|----------------------------|
A|--------------------------------|----------------------------|
E|--------------------------------|----------------------------|

E|-----------------------|---------------------13--15--17--|
B|------------13~--------|---------14--15--17--------------|
G|-----------------------|-----14--------------------------|
D|-----------------------|---------------------------------|
A|-----------------------|---------------------------------|
E|-----------------------|---------------------------------|

E|--17~---------------15--|--15S--13--13--12--12----------15~--|
B|------------------------|-----------------------15--13-------|
G|------------------------|------------------------------------|
D|------------------------|------------------------------------|
A|------------------------|------------------------------------|
E|------------------------|------------------------------------|

E|-----13--12--12~-----------------|-----------------------|
B|--------------------15--13--13~--|-------------------13--|
G|---------------------------------|-----------------------|
D|---------------------------------|-----------------------|
A|---------------------------------|-----------------------|
E|---------------------------------|-----------------------|

E|------------------------------10--|--10b12~----10---------------------|
B|--13---12--10--10~----12--13------|----------------13~----12--13--12--|
G|----------------------------------|-----------------------------------|
D|----------------------------------|-----------------------------------|
A|----------------------------------|-----------------------------------|
E|----------------------------------|-----------------------------------|

E|---------------------|----------------------------------|----------------------|
B|--15~----------------|--------------------------5---5-6-|--8~------------5--6--|
G|---------------------|--------------------4-5-7---7-----|----------------------|
D|---------------------|--------------3-5-7---------------|----------------------|
A|---------------------|--------3-5-7---------------------|----------------------|
E|---------------------|--3-5-7---------------------------|----------------------|

E|-----------------------------------|-------------------------|
B|--8----13b15---13h-15p-13----12----|--12b13~-----------------|
G|-----------------------------------|--------------------9----|
D|-----------------------------------|-------------------------|
A|-----------------------------------|-------------------------|
E|-----------------------------------|-------------------------|

E|--------------------|-------------------------|---------------------------|
B|--------------------|---------------------12--|--13----15b----15----13----|
G|--9~----------------|--14~------------14------|---------------------------|
D|--------------------|-------------------------|---------------------------|
A|--------------------|-------------------------|---------------------------|
E|--------------------|-------------------------|---------------------------|

E|--------------------------|---------------------|--------------------------|
B|--15~---------------------|---------------------|--15b~------------13--15--|
G|-----------------14s--16--|--12~----------------|--------------------------|
D|--------------------------|---------------------|--------------------------|
A|--------------------------|---------------------|--------------------------|
E|--------------------------|---------------------|--------------------------|

E|--12----13/15---13h-15p-13----12---13p-12-|-------------------------------|
B|------------------------------------------|--15~---------------13h-15p-13-|
G|------------------------------------------|-------------------------------|
D|------------------------------------------|-------------------------------|
A|------------------------------------------|-------------------------------|
E|------------------------------------------|-------------------------------|

E|-------------------------|-------------------------|
B|--12~------------12--13--|--13~------------13--15--|
G|-------------------------|-------------------------|
D|-------------------------|-------------------------|
A|-------------------------|-------------------------|
E|-------------------------|-------------------------|

E|--13---12h-13p-12------------------|-------------------15~--------||
B|---------------------15----13--15~-|--------13s--15---------------||
G|-----------------------------------|------------------------------||
D|-----------------------------------|------------------------------||
A|-----------------------------------|------------------------------||
E|-----------------------------------|------------------------------||

Composição de Oziel Filho
Colaboração e revisão:
  • Wagner Vasconcelos
3.019 exibições
    • ½ Tom
    • A
    • Bb
    • B
    • C
    • Db
    • D
    • Eb
    • E
    • F
    • F#
    • G
    • Ab
  • Adicionar à lista

    0 comentários

    Ver todos os comentários

    Conseguiu tocar?

    0 Tocaram 0 Ainda não

    Grave um vídeo tocando Illusion e nos envie!

    00:00 / 00:00
    Outros vídeos desta música
    Repetir Qualidade Automático
    Outros vídeos desta música
    00:00 / 00:00
    Automático

    Cifra Club Pro

    Aproveite o Cifra Club com benefícios exclusivos e sem anúncios
    Cifra Club Pro
    Aproveite o Cifra Club com benefícios exclusivos e sem anúncios
    OK