Cifra Club

Aprenda

A.V.H.

Ozzy Osbourne

Cifra: Principal (violão e guitarra)
tom: G
Guitarra 1
                                                                                
D#||------------------|------------------|------------------|------------------|
A#||------------------|------------------|------------------|------------------|
F#||------------------|------------------|------------------|------------------|
C#||------------------|------------------|------------------|------------------|
G#||------------------|------------------|------------------|------------------|
D#||------------------|------------------|------------------|------------------|


                                                                            
------------------|------------------|------------------|------------------|
------------------|------------------|------------------|------------------|
------------------|------------------|------------------|------------------|
------------------|------------------|------------------|------------------|
------------------|------------------|------------------|------------------|
------------------|------------------|------------------|------------------|


                                                                
---------------------|--0----------------|---------------------|
---------------------|--0----------------|---------------------|
------------7---7--x-|--9----------------|------------7---7--x-|
------------7---7--x-|--9----------------|------------7---7--x-|
------------5---5--x-|--7----------------|------------5---5--x-|
---------------------|-------------------|---------------------|


                                                                 
--0------------------|----------------------|--0----------------|
--0------------------|--3-------------------|--0----------------|
--9------------------|--2----------7---7--x-|--9----------------|
--9------------------|--0----------7---7--x-|--9----------------|
--7------------------|--0----------5---5--x-|--7----------------|
-----------19/-------|----------------------|-------------------|


                                                                
---------------------|--0------------------|-------------------|
---------------------|--0------------------|------x------------|
------------7---7--x-|--9---------------2--|------x------------|
------------7---7--x-|--9---------------2--|-------------------|
------------5---5--x-|--7---------------0--|-------------------|
---------------------|---------------3b----|-------------------|


                                                                 
---------------------------------|-------------------------0----|
---------------------------------|-------------------------5----|
---------------------------------|-------------------------4----|
---------------------0-7-0---5h6-|-------------------------2----|
------2----4-----5p0-------7-----|------2----4-----5p0-0-0------|
--0-0----0---0-0-----------------|--0-0----0---0-0--------------|


                                                                                
---------------------------------|-------------------------|--0----------------|
---------------------------------|-------------------------|--0----------------|
---------------------------------|-------------------------|--9----------------|
---------------------0-7-0---5h6-|------4----6----7--------|--9----------------|
------2----4-----5p0-------7-----|------2----4----5--------|--7----------------|
--0-0----0---0-0-----------------|--0-0----0----0----------|-------------------|


                                                                    
-----------------------|--------------------|----------------------|
-----------------------|--------------------|--3-------------------|
--------------x-11--12-|--------------12/---|--2--------2----2-----|
--------------x-10--12-|--------------12/---|--0--------2----2--0--|
--------------x-9---10-|--------------10/---|--0--------0----0--0--|
-----------------------|--------------------|----------------------|


                                                                 
--0----------------|-----------------------|--------------------|
--0----------------|-----------------------|--------------------|
--9----------------|--------------x-11--12-|--------------12/---|
--9----------------|--------------x-10--12-|--------------12/---|
--7----------------|--------------x-9---10-|--------------10/---|
-------------------|-----------------------|--------------------|


                                                                               
---------------------|------------------|------------------|------------------|
--3----7r7b----------|------------------|------------------|------------------|
--2----7r7b----------|------------------|------------------|------------------|
--0------------------|------------------|------------------|------------------|
--0------------------|------------------|------------------|------------------|
---------------------|------------------|------------------|------------------|


                                                                             
--------------------------------------|------------------|------------------|
--------------------------------------|------------------|------------------|
--7/9-x-x-9/11-x-x-11/13-x-x-13/14----|------------------|------------------|
--------------------------------------|------------------|------------------|
--5/7-x-x-7/9--x-x-9/-11-x-x-11/12-x--|------------------|------------------|
-----------------------------------x--|------------------|------------------|


                                                                              
------------------|----------------------------------|-----------------------|
------------------|----------------------------------|--3--------------------|
------------------|--4h5p4h5p4h5p4h5p4h5p4h5p4h5p4h5-|--0-----------------2--|
------------------|----------------------------------|--0-----------------2--|
------------------|----------------------------------|--------------------0--|
------------------|----------------------------------|--3----2----0----3b----|


                                                         
----------------------|---------------------------------|
----------------------|---------------------------------|
----2-------2---------|---------------------------------|
----2-------2---------|---------------------0-7-0---5h6-|
----0-------0---------|------2----4-----5p0-------7-----|
-------3---------3b---|--0-0----0---0-0-----------------|


                                                                              
-------------------------0----|-----------------------|----------------------|
-------------------------5----|--3--------------------|----------------------|
-------------------------4----|--0-----------------2--|----2-------2---------|
-------------------------2----|--0-----------------2--|----2-------2---------|
------2----4-----5p0-0-0------|--------------------0--|----0-------0---------|
--0-0----0---0-0--------------|--3----2----0----3b----|-------3---------3b---|


                                                                 
---------------------------------|-------------------------0----|
---------------------------------|-------------------------5----|
---------------------------------|-------------------------4----|
---------------------0-7-0---5h6-|-------------------------2----|
------2----4-----5p0-------7-----|------2----4-----5p0-0-0------|
--0-0----0---0-0-----------------|--0-0----0---0-0--------------|


                                                                                
---------------------------------|-------------------------|--0----------------|
---------------------------------|-------------------------|--0----------------|
---------------------------------|-------------------------|--9----------------|
---------------------0-7-0---5h6-|------4----6----7--------|--9----------------|
------2----4-----5p0-------7-----|------2----4----5--------|--7----------------|
--0-0----0---0-0-----------------|--0-0----0----0----------|-------------------|


                                                                    
-----------------------|--------------------|----------------------|
-----------------------|--------------------|--3-------------------|
--------------x-11--12-|--------------12/---|--2--------2----2-----|
--------------x-10--12-|--------------12/---|--0--------2----2--0--|
--------------x-9---10-|--------------10/---|--0--------0----0--0--|
-----------------------|--------------------|----------------------|


                                                                 
--0----------------|-----------------------|--------------------|
--0----------------|-----------------------|--------------------|
--9----------------|--------------x-11--12-|--------------12/---|
--9----------------|--------------x-10--12-|--------------12/---|
--7----------------|--------------x-9---10-|--------------10/---|
-------------------|-----------------------|--------------------|


                                                                              
--------------------|------------------|------------------|------------------|
--3-----------------|------------------|------------------|------------------|
--2------4----------|------------------|------------------|------------------|
--0-----------------|------------------|------------------|------------------|
--0-----------------|------------------|------------------|------------------|
--------------------|------------------|------------------|------------------|


                                                                             
--------------------------------------|------------------|------------------|
--------------------------------------|------------------|------------------|
--7/9-x-x-9/11-x-x-11/13-x-x-13/14----|------------------|------------------|
--------------------------------------|------------------|------------------|
--5/7-x-x-7/9--x-x-9/-11-x-x-11/12-x--|------------------|------------------|
-----------------------------------x--|------------------|------------------|


                                                                              
------------------|----------------------------------|-----------------------|
------------------|----------------------------------|--3--------------------|
------------------|--4h5p4h5p4h5p4h5p4h5p4h5p4h5p4h5-|--0-----------------2--|
------------------|----------------------------------|--0-----------------2--|
------------------|----------------------------------|--------------------0--|
------------------|----------------------------------|--3----2----0----3b----|


                                                         
----------------------|---------------------------------|
----------------------|---------------------------------|
----2-------2---------|---------------------------------|
----2-------2---------|---------------------0-7-0---5h6-|
----0-------0---------|------2----4-----5p0-------7-----|
-------3---------3b---|--0-0----0---0-0-----------------|


                                                                              
-------------------------0----|-----------------------|----------------------|
-------------------------5----|--3--------------------|----------------------|
-------------------------4----|--0-----------------2--|----2-------2---------|
-------------------------2----|--0-----------------2--|----2-------2---------|
------2----4-----5p0-0-0------|--------------------0--|----0-------0---------|
--0-0----0---0-0--------------|--3----2----0----3b----|-------3---------3b---|


                                                                 
---------------------------------|-------------------------0----|
---------------------------------|-------------------------5----|
---------------------------------|-------------------------4----|
---------------------0-7-0---5h6-|-------------------------2----|
------2----4-----5p0-------7-----|------2----4-----5p0-0-0------|
--0-0----0---0-0-----------------|--0-0----0---0-0--------------|


                                                                        
-----------------------|-----------------------|-----------------------|
--3--------------------|-----------------------|--3--------------------|
--0-----------------2--|----2-------2----2-----|--0-----------------2--|
--0-----------------2--|----2-------2----2--0--|--0-----------------2--|
--------------------0--|----0-------0----0--0--|--------------------0--|
--3----2----0----3b----|-------3b--------------|--3----2----0----3b----|


                                                                       
----------------------|-----------------------|-----------------------|
-------8--10----------|--3--------------------|-----------------------|
-------7--9-----------|--0-----------------2--|----2-------2----2-----|
-------5--7-----------|--0-----------------2--|----2-------2----2--0--|
----0-----------------|--------------------0--|----0-------0----0--0--|
----------------------|--3----2----0----3b----|-------3b--------------|


                                                               
--------------------|-------------------|---------------------|
--------------------|-------------------|---------------------|
--4-----------------|--4----------------|---------------------|
--4-----------------|--4----------------|----2---2---2--------|
--2------------0----|--0----------------|----2---2---2--------|
--------------------|-------------------|----0---0---0--------|


                                                                    
----------------------|---------------------|----------------------|
----------------------|---------------------|----------------------|
-----------------2----|---------------------|-----------------2----|
----2---2---5----2----|----2---2---2--------|----2---2---5----2----|
----2---2---5----0----|----2---2---2--------|----2---2---5----0----|
----0---0---3---------|----0---0---0--------|----0---0---3---------|


                                                                   
---------------------|----------------------|---------------------|
---------------------|----------------------|---------------------|
---------------------|-----------------2----|---------------------|
----2---2---2--------|----2---2---5----2----|----2---2---2--------|
----2---2---2--------|----2---2---5----0----|----2---2---2--------|
----0---0---0--------|----0---0---3---------|----0---0---0--------|


                                                                               
---------------------|------------------|------------------|------------------|
----8---8---8--------|------------------|------------------|------------------|
----7---7---7--------|------------------|------------------|------------------|
----6---6---6--------|------------------|------------------|------------------|
----7---7---7--------|------------------|------------------|------------------|
---------------------|------------------|------------------|------------------|


                                                                             
--------------------------------------|------------------|------------------|
--------------------------------------|------------------|------------------|
--7/9-x-x-9/11-x-x-11/13-x-x-13/14----|------------------|------------------|
--------------------------------------|------------------|------------------|
--5/7-x-x-7/9--x-x-9/-11-x-x-11/12-x--|------------------|------------------|
-----------------------------------x--|------------------|------------------|


                                                                    
------------------|------------------------|-----------------------|
------------------|------------------------|-----------------------|
------------------|------------------------|------------------8----|
------------------|--2-4---4----2-4---4----|--5-7---7----7----8----|
------------------|--0-2---2----0-2---2----|--3-5---5----5----6----|
------------------|------------------------|-----------------------|


                                                                 
---------------------------------|-------------------------0----|
---------------------------------|-------------------------5----|
---------------------------------|-------------------------4----|
---------------------0-7-0---5h6-|-------------------------2----|
------2----4-----5p0-------7-----|------2----4-----5p0-0-0------|
--0-0----0---0-0-----------------|--0-0----0---0-0--------------|


                                                                                
---------------------------------|-------------------------|--0----------------|
---------------------------------|-------------------------|--0----------------|
---------------------------------|-------------------------|--9----------------|
---------------------0-7-0---5h6-|------4----6----7--------|--9----------------|
------2----4-----5p0-------7-----|------2----4----5--------|--7----------------|
--0-0----0---0-0-----------------|--0-0----0----0----------|-------------------|


                                                                    
-----------------------|--------------------|----------------------|
-----------------------|--------------------|--3-------------------|
--------------x-11--12-|--------------12/---|--2--------2----2-----|
--------------x-10--12-|--------------12/---|--0--------2----2--0--|
--------------x-9---10-|--------------10/---|--0--------0----0--0--|
-----------------------|--------------------|----------------------|


                                                                 
--0----------------|-----------------------|--------------------|
--0----------------|-----------------------|--------------------|
--9----------------|--------------x-11--12-|--------------12/---|
--9----------------|--------------x-10--12-|--------------12/---|
--7----------------|--------------x-9---10-|--------------10/---|
-------------------|-----------------------|--------------------|


                                                                              
--------------------|------------------|------------------|------------------|
--3-----------------|------------------|------------------|------------------|
--2------4----------|------------------|------------------|------------------|
--0-----------------|------------------|------------------|------------------|
--0-----------------|------------------|------------------|------------------|
--------------------|------------------|------------------|------------------|


                                                                             
--------------------------------------|------------------|------------------|
--------------------------------------|------------------|------------------|
--7/9-x-x-9/11-x-x-11/13-x-x-13/14----|------------------|------------------|
--------------------------------------|------------------|------------------|
--5/7-x-x-7/9--x-x-9/-11-x-x-11/12-x--|------------------|------------------|
-----------------------------------x--|------------------|------------------|


                                                           
------------------|-------------------|-------------------|
------------------|-------------------|-------------------|
------------------|--2----------------|--4----------------|
------------------|--2----------------|--4----------------|
------------------|--0----------------|--2----------------|
------------------|-------------------|-------------------|


                                                                        
------------------------|-----------------------|----------------------|
------------------------|--3--------------------|----------------------|
--7----7--7--7--7--7/---|--0-----------------2--|----2-------2---------|
--7----7--7--7--7--7/---|--0-----------------2--|----2-------2---------|
--5----5--5--5--5--5/---|--------------------0--|----0-------0---------|
------------------------|--3----2----0----3b----|-------3---------3b---|


                                                                 
---------------------------------|-------------------------0----|
---------------------------------|-------------------------5----|
---------------------------------|-------------------------4----|
---------------------0-7-0---5h6-|-------------------------2----|
------2----4-----5p0-------7-----|------2----4-----5p0-0-0------|
--0-0----0---0-0-----------------|--0-0----0---0-0--------------|


                                               
-----------------------|----------------------|
--3--------------------|----------------------|
--0-----------------2--|----2-------2---------|
--0-----------------2--|----2-------2---------|
--------------------0--|----0-------0---------|
--3----2----0----3b----|-------3---------3b---|


                                                                 
---------------------------------|-------------------------0----|
---------------------------------|-------------------------5----|
---------------------------------|-------------------------4----|
---------------------0-7-0---5h6-|-------------------------2----|
------2----4-----5p0-------7-----|------2----4-----5p0-0-0------|
--0-0----0---0-0-----------------|--0-0----0---0-0--------------|


                                                                        
-----------------------|-----------------------|-----------------------|
--3--------------------|-----------------------|--3--------------------|
--0-----------------2--|----2-------2----2-----|--0-----------------2--|
--0-----------------2--|----2-------2----2--0--|--0-----------------2--|
--------------------0--|----0-------0----0--0--|--------------------0--|
--3----2----0----3b----|-------3b--------------|--3----2----0----3b----|


                                                                       
----------------------|-----------------------|-----------------------|
-------8--10----------|--3--------------------|-----------------------|
-------7--9-----------|--0-----------------2--|----2-------2----2-----|
-------5--7-----------|--0-----------------2--|----2-------2----2--0--|
----0-----------------|--------------------0--|----0-------0----0--0--|
----------------------|--3----2----0----3b----|-------3b--------------|


                                              
-------------------------|------------------||
-------------------------|------------------||
-------------------------|------------------||
------4----6----7--------|------------------||
------2----4----5--------|------------------||
--0-0----0----0----------|------------------||
Composição de Ozzy Osbourne / Randy Castillo / Zakk Wylde
Colaboração e revisão:
  • marcos rolim
3.391 exibições
    • ½ Tom
    • A
    • Bb
    • B
    • C
    • Db
    • D
    • Eb
    • E
    • F
    • F#
    • G
    • Ab
  • Adicionar à lista

    0 comentários

    Ver todos os comentários

    Conseguiu tocar?

    0 Tocaram 0 Ainda não

    Grave um vídeo tocando A.V.H. e nos envie!

    00:00 / 00:00
    outros vídeos desta música
    repetir qualidade Automático
    Outros vídeos desta música
    00:00 / 00:00
    Automático

    Cifra Club Pro

    Aproveite o Cifra Club com benefícios exclusivos e sem anúncios
    Cifra Club Pro
    Aproveite o Cifra Club com benefícios exclusivos e sem anúncios
    OK