Cifra Club

Changes

Ozzy Osbourne

Cifra: Principal (violão e guitarra)
tom: G
[Intro] C  Dm  C  Dm  C

E|------------------------------------------------------------|
B|--------5------8---------------------10----10-----8---------|
G|------5----------------------5--------7-----7-----5---------|
D|----5--------------------5----------------------------------|
A|----------------------3-------------------------------------|
E|------------------------------------------------------------|

.....I lost my best friend

E|-------------------------------------------------1---1------|
B|--------5------8--------------------------------3---3-------|
G|------5----------------------7------------------2---2-------|
D|----5--------------------7----------------------0---0-------|
A|----------------------5-------------------------------------|
E|------------------------------------------------------------|

C            Dm C             Dm C
I feel unhappy,    I feel so sad
      Dm                            C    Dm C
I lost the best friend that I ever had
              Dm C               Dm C
She was my woman,   I loved her so
        Dm                         C  Dm C
But it's too late now, I've let her go
F    Em          Dm       F
I'm going through changes
   Em                Dm     F  Em
I'm going through changes
Dm  G  F  Am  G  Am
              C       Dm C                Dm C
We shared the years,     we shared each day
     Dm                       C     Dm C
In love together we found a way
                 Dm C               Dm C
But soon the world    had its evil way
             Dm       C              Dm C
My heart was blinded,  Love went astray
F    Em          Dm        F
I'm going through changes
  Em                Dm      F  Em
I'm going through changes
Dm  G  F  Am  G  Am
         C    Dm C         Dm C
It took so long      to realize
      Dm                         C     Dm C
And I can still hear her last goodbyes
           Dm C                     Dm C
Now all my days   are filled with tears
           Dm                         C      Dm C
Wish I could go back and change these years
F    Em          Dm       F
I'm going through changes
      Em         Dm        F  Em  Dm  G  F  Am
I'm going through changes
00:00 / 00:00
Outros vídeos desta música
Repetir
Outros vídeos desta música
Composição de B.J. Ward / Ozzy Osbourne
Colaboração e revisão:
  • marcio marques
6.363 exibições
    • ½ Tom
    • A
    • Bb
    • B
    • C
    • Db
    • D
    • Eb
    • E
    • F
    • F#
    • G
    • Ab
  • Adicionar à lista

    0 comentários

    Ver todos os comentários

    Conseguiu tocar?

    0 Tocaram 0 Ainda não

    Grave um vídeo tocando Changes e nos envie!

    Entre para oCifra Club PRO

    Tenha acesso a benefícios exclusivos no App e no Site

    • Chega de anúncios

    • Prioridade de compra em lançamentos

    • Mais recursos no app do Afinador

    • Atendimento Prioritário

    • Descontos nos produtos Cifra Club

    • Ajude a produzir mais conteúdo

    00:00 / 00:00

    Cifra Club Pro

    Aproveite o Cifra Club com benefícios exclusivos e sem anúncios
    Cifra Club Pro
    Aproveite o Cifra Club com benefícios exclusivos e sem anúncios
    OK