Cifra Club

Aprenda

Crazy Train

Ozzy Osbourne

Cifra: Principal (violão e guitarra)
Tom: A
[Intro]

All aboard, hahahahahahaha!

Aye aye aye aye!

[Riff Intro]

( D5/A  E5 )

E|-20~x\----------------------------------------------|
B|-17~x\----------------------------------------------|
G|----------------------------------------------------|
D|----------------------------------------------------|
A|-----------4---5---4----2-------2-------------------|
E|-------2-2---2---2---2----5-4-5---5-4-0-------------|

E|----------------------------------------------------|
B|----------------------------------------------------|
G|----------------------------------------------------|
D|----------------------------------------------------|
A|-----4---5---4-----2-------2------------------------|
E|-2-2---2---2---2-----5-4-5---5-4-0------------------|

E|----------------------------------------------------|
B|----------------------------------------------------|
G|----------------------------------------------------|
D|----------------------------------------------------|
A|-----4---5---4-----2-------2------------------------|
E|-2-2---2---2---2-----5-4-5---5-4-0------------------|
   P.M.  .   .   .     . . .   . .

                     D5/A  E5
E|-------------------------0--------------------------|
B|-------------------3-----0--------------------------|
G|-------------------2-----x--------------------------|
D|-------------------0-----2--------------------------|
A|-----4---5---4-2---0-----2--------------------------|
E|-2-2---2---2-------------0--------------------------|

(Variação Do Final Riff Intro)

                     D5/A  E5
E|-------------------------0--------------------------|
B|-------------------3-----0--------------------------|
G|-------------------2-----x--------------------------|
D|-------------------0-----2--------------------------|
A|-----4---5---4-2---0-----2--------------------------|
E|-2-2---2---2-------------0--0-2-4-------------------|

(Riff Estrofes)

           A          A7M(9)     A4(6)
E|----------------------------------------------------|
B|---------5----------5----------3--------------------|
G|---------6----------4----------2--------------------|
D|---------7----------6----------4--------------------|
A|-0-0-0------0-0-0------0-0-0------------------------|
E|----------------------------------------------------|
   P.M..      . . .      . . .

           A5
E|----------------------------------------------------|
B|----------------------------------------------------|
G|---------2-2----------------------------------------|
D|---------2-2----------------------------------------|
A|-0-0-0---0------0-----------------------------------|
E|--------------4-------------------------------------|
   P.M..

(Segunda Vez)

           A          A7M(9)     A4(6)
E|----------------------------------------------------|
B|---------5----------5----------3--------------------|
G|---------6----------4----------2--------------------|
D|---------7----------6----------4--------------------|
A|---0-0-0----0-0-0-0----0-0-0-0----------------------|
E|----------------------------------------------------|
   P.M.. .    . . . .    . . . .

           A5
E|----------------------------------------------------|
B|----------------------------------------------------|
G|---------2---4p2p0----------------------------------|
D|---------2---------4p2p0----------------------------|
A|-0-0-0-0-0---------------4p2p0----------------------|
E|----------------------------------------------------|
   P.M.. .

           A          A7M(9)     A4(6)
E|--------------------7----------5--------------------|
B|---------5----------5----------3--------------------|
G|---------6----------4----------2--------------------|
D|---------7----------6----------4--------------------|
A|-0-0-0-0----0-0-0-0----0-0-0-0----------------------|
E|----------------------------------------------------|
   P.M.. .    . . . .    . . . .

           A5
E|----------------------------------------------------|
B|----------------------------------------------------|
G|---------2-2----------------------------------------|
D|---------2-2----------------------------------------|
A|-0-0-0-0-0-----0------------------------------------|
E|-------------4--------------------------------------|
   P.M.. .

(Tocar o riff mais 6x, e terminar assim)

     A/C#      E5     D5/A   A5
E|----------------------------------------------------|
B|-----10-------------3-------------------------------|
G|-----9-------9------2------2------------------------|
D|-----7-------9------0------2--x\--------------------|
A|-0-------0-7-7------0------0--x\--------------------|
E|---9------------0-2----2-4--------------------------|

(Variação da Última Estrofe)

           A          A7M(9)     A4(6)
E|--------------------7----------5--------------------|
B|---------5----------5----------3--------------------|
G|---------6----------4----------2--------------------|
D|---------7----------6----------4--------------------|
A|-0-0-0-0----0-0-0-0----0-0-0-0----------------------|
E|----------------------------------------------------|
   P.M.. .    . . . .    . . . .

           A5
E|----------------------------------------------------|
B|----------------------------------------------------|
G|---------2-2----------------------------------------|
D|---------2-2----------------------------------------|
A|-0-0-0-0-0------------------------------------------|
E|-------------3b1/4----------------------------------|
   P.M.. .

( A  A7M(9)  A4(6)  A5 ) 
( A  A7M(9)  A4(6)  A5 ) 

      A  A7M(9)  A4(6)
Crazy
 A5
But that's how it goes

( A  A7M(9)  A4(6)  A5 )

         A       A7M(9)  A4(6)
Millions of people
 A5
Living as foes

( A  A7M(9)  A4(6)  A5 )

      A  A7M(9)  A4(6)
Maybe
A5
It's not too late
 
( A  A7M(9)  A4(6)  A5 )

              A    A7M(9)  A4(6)
To learn how to love
        A5
And forget how to hate

( A/C#  E5  D5/A  A5 )

[Refrão]

                      H.N.. \ /
E|----------------------------------------------------|
B|-------------3--------------------------------------|
G|-------------2----------7---------------------------|
D|-------------0------7-------------------------------|
A|-4---4--4-4--0--------------------------------------|
E|-2-0-2--2-2-----------------------------------------|

                      H.N. . . \ /
E|---------------------------5------------------------|
B|-------------3-----------5--------------------------|
G|-------------2---------5----------------------------|
D|-------------0------4-------------------------------|
A|-4---4--4-4--0--------------------------------------|
E|-2-0-2--2-2-----------------------------------------|

   F#5         D5/A
E|----------------------------------------------------|
B|-------------3-3------------------------------------|
G|-------------2-2------------------------------------|
D|-------------0-0---0-0------------------------------|
A|-4---4--4-4--0-0-------4-2--------------------------|
E|-2-0-2--2-2-----------------------------------------|

   A5           E5
E|--------------0-0-----------------------------------|
B|--------------0-0-----------------------------------|
G|-2-2---2------x-x-----------------------------------|
D|-2-2---2------2-2-----------------------------------|
A|-0-0---0------2-2-----------------------------------|
E|---------4-2--0-0--4-4~-----------------------------|

E|----------------------------------------------------|
B|---------2-5p2-3p2---2------------------------------|
G|-4b6--b6-----------5---5-4-2---2--------------------|
D|-----------------------------4---4-2----------------|
A|----------------------------------------------------|
E|----------------------------------------------------|

E|----------------------------------------------------|
B|----------------------------------------------------|
G|----------------------------------------------------|
D|---2------------------------------------------------|
A|-4---4-3-2h3p2h3p2h3p2p0----------------------------|
E|----------------------------------------------------|

 F#5               D5/A
Mental wounds not healing
 F#5              D5/A
Life's a bitter shame
     A5            E5
I'm going off the rails on a crazy train
     A5            E5
I'm going off the rails on a crazy train

( F#5  G#5 )
( F#5  D5/A  E5 )

( A  A7M(9)  A4(6)  A5 )
( A  A7M(9)  A4(6)  A5 )

               A       A7M(9)  A4(6)
I've listened to preachers
A5
I've listened to fools

( A  A7M(9)  A4(6)  A5 )

                   A     A7M(9)  A4(6)
I've watched all the dropouts
  A5
Who make their own rules

( A  A7M(9)  A4(6)  A5 )

            A     A7M(9)  A4(6)
One person conditioned
 A5
To rule and control

( A  A7M(9)  A4(6)  A5 )

        A       A7M(9)  A4(6)
The media sells it
A5
And you live the role

( A/C#  E5  D5/A  A5 )

[Refrão]

E|---9p5---10p6---11p7------12p8----13p9----14p10-----|
B|-7-----8------9--------10------11------12-----------|
G|----------------------------------------------------|
D|----------------------------------------------------|
A|----------------------------------------------------|
E|----------------------------------------------------|

E|----15p11----16p12----17p13------18p14----19-19\----|
B|-13-------14-------15---------16-------17-----------|
G|----------------------------------------------------|
D|----------------------------------------------------|
A|----------------------------------------------------|
E|----------------------------------------------------|

 F#5                   D5/A
Mental wounds still screaming
  F#5         D5/A
Driving me insane
     A5            E5
I'm going off the rails on a crazy train
     A5            E5
I'm going off the rails on a crazy train

( F#5  G#5 )
( F#5  D5/A  E5 )

[Ponte]

F#5             A5        E5     F#5        D5/A  E5
  I know that things are going wrong for me

F#5          A5     E5    F#5    D5/A  E5
  You gotta listen to my words, yeah, yeah, yeah!

[Solo]

(Parte 1 de 10)

E|----------------------------------------------------|
B|----------------------------------------------------|
G|-18p14p11h14----18p14--18p14p11h14------------------|
D|----------------------------------------------------|
A|----------------------------------------------------|
E|----------------------------------------------------|

E|----------------------------------------------------|
B|----------------------------------------------------|
G|-18p14--18p14p11h14----18p14--18p14p11h14-----------|
D|----------------------------------------------------|
A|----------------------------------------------------|
E|----------------------------------------------------|

(Parte 2 de 10)

E|----------------------------------------------------|
B|----------------------------------------------------|
G|-19p14--19p14p11h14----19p14--19p14p11h14-----------|
D|----------------------------------------------------|
A|----------------------------------------------------|
E|----------------------------------------------------|

E|----------------------------------------------------|
B|----------------------------------------------------|
G|-19p14--19p14p11h14-----------19p14p11h14-----------|
D|----------------------------------------------------|
A|----------------------------------------------------|
E|----------------------------------------------------|

(Parte 3 de 10)

E|----------------------------------------------------|
B|----------------------------------------------------|
G|-11b13---14p11--14p11--14p11--14p11--14p11----------|
D|----------------------------------------------------|
A|----------------------------------------------------|
E|----------------------------------------------------|


E|----------------------------------------------------|
B|-----------------------------------------10---------|
G|-14p11--14p11--14p11--14p11--14p11--9b11----9b11~---|
D|----------------------------------------------------|
A|----------------------------------------------------|
E|----------------------------------------------------|

(Parte 4 de 10)

E|-17-16-14---------14-16-17-17b19~~------------------|
B|----------17b19~~-----------------------------------|
G|----------------------------------------------------|
D|----------------------------------------------------|
A|----------------------------------------------------|
E|----------------------------------------------------|

(Parte 5 de 10)

E|-14h17p14----14-------------------------------------|
B|----------17----17-15-14-15p14----14----------------|
G|-------------------------------16----16p14----------|
D|----------------------------------------------------|
A|----------------------------------------------------|
E|----------------------------------------------------|

E|---------------------------------14-----------------|
B|-------17--17--17----------14-17--------------------|
G|-16b18----b16r-14---14-16---------------------------|
D|----------------------------------------------------|
A|----------------------------------------------------|
E|----------------------------------------------------|

(Parte 6 de 10)

E|-17p14--17p14--17p14---17p14--17p14--17p14----------|
B|----------------------------------------------------|
G|----------------------------------------------------|
D|----------------------------------------------------|
A|----------------------------------------------------|
E|----------------------------------------------------|

E|-17p14--17p14--17p14/--19p16--19p16--19p16----------|
B|----------------------------------------------------|
G|----------------------------------------------------|
D|----------------------------------------------------|
A|----------------------------------------------------|
E|----------------------------------------------------|

(Parte 7 de 10)

E|-21p17--21p17--21p17---21p17--21p17--21p17----------|
B|----------------------------------------------------|
G|----------------------------------------------------|
D|----------------------------------------------------|
A|----------------------------------------------------|
E|----------------------------------------------------|

E|-21p17--21p17--21p17--21p17--19p17--19p17-----------|
B|----------------------------------------------------|
G|----------------------------------------------------|
D|----------------------------------------------------|
A|----------------------------------------------------|
E|----------------------------------------------------|

(Parte 8 de 10)

E|-16h19p16--19p16--19p16---19p16--19p16--19p16-------|
B|----------------------------------------------------|
G|----------------------------------------------------|
D|----------------------------------------------------|
A|----------------------------------------------------|
E|----------------------------------------------------|

E|-19p16--19p16--19p16---14h15p14-----------19--------|
B|---------------------------------17-17b19----17b19~-|
G|----------------------------------------------------|
D|----------------------------------------------------|
A|----------------------------------------------------|
E|----------------------------------------------------|

(Parte 9 de 10)

E|----------------------------------------------------|
B|-17-14----------------------------------------------|
G|-------16-14--------------14------------------------|
D|-----------------16-14-16----16-14-16---------------|
A|----------------------------------------------------|
E|----------------------------------------------------|

E|----------------------------------------------------|
B|----------------------------------------------------|
G|-14------------14-----------13h14p13h14p13h14--16~--|
D|----16-14-16------16-14-16--------------------------|
A|----------------------------------------------------|
E|----------------------------------------------------|

(Parte 10 de 10)

E|----------------------------------------------------|
B|----------------------------------------------------|
G|----------------------------------------------------|
D|------------------------11h12h14--------------------|
A|-------------12h14h16-------------------------------|
E|-12h14h16-------------------------------------------|

E|------------------------------16h17h19--19b21~~-19\-|
B|--------------------15h17h19------------------------|
G|-----------14h16h18---------------------------------|
D|-14h16h18-------------------------------------------|
A|----------------------------------------------------|
E|----------------------------------------------------|

(Repete Riff Intro)

( A  A7M(9)  A4(6)  A5 )
( A  A7M(9)  A4(6)  A5 )

         A       A7M(9)  A4(6)
Heirs of a cold war
  A5
That's what we've become

( A  A7M(9)  A4(6)  A5 )

       A         A7M(9)  A4(6)
Inheriting troubles
A5
I'm mentally numb

( A  A7M(9)  A4(6)  A5 )

       A  A7M(9)  A4(6)
Crazy
A5
I just can not bear

( A  A7M(9)  A4(6)  A5 )

            A         A7M(9)  A4(6)  A5
I'm living with something
   A5
That just isn't fair

( A/C#  E5  D5/A  A5 )

[Refrão]

E|-----------9-12p9------------10-13p10---------------|
B|-12b14-b14---------13b15-b15------------------------|
G|----------------------------------------------------|
D|----------------------------------------------------|
A|----------------------------------------------------|
E|----------------------------------------------------|

E|-----------11-14p11------------12-15p12-------------|
B|-14b16-b16-----------15b17-b17----------------------|
G|----------------------------------------------------|
D|----------------------------------------------------|
A|----------------------------------------------------|
E|----------------------------------------------------|

E|-----------13-16p13---------------------------------|
B|-16b18-b18------------------------------------------|
G|---------------------14\----------------------------|
D|---------------------14\----------------------------|
A|----------------------------------------------------|
E|----------------------------------------------------|

 F#5               D5/A
Mental wounds not healing
 F#5                D5/A
Who and what's to blame
     A5            E5
I'm going off the rails on a crazy train
     A5            E5
I'm going off the rails on a crazy train

[Final] F#5  G#5
        F#5  D5/A  E5
Composição de Bob Daisley / Ozzy Osbourne / Randy Rhoads
643.227 exibições
    • ½ Tom
    • A
    • Bb
    • B
    • C
    • Db
    • D
    • Eb
    • E
    • F
    • F#
    • G
    • Ab
  • Adicionar à lista

    0 comentários

    Mostrar mais comentários
    00:00 / 00:00
    outros vídeos desta música
    repetir qualidade Automático
    Outros vídeos desta música
    00:00 / 00:00
    Automático
    Capítulos
    • Início
    • Configuração do Efeito
    • Tocando a música
    • Acordes da Introdução e Estrofes
    • Tocando Introdução e Primeira Estrofe
    • Ensinando Riff da Introdução
    • Ensinando Riff das Estrofes
    • Acordes do Refrão
    • Tocando Refrão
    • Ensinando Refrão
    • Acordes da Ponte
    • Tocando Ponte
    • Ensinando Ponte
    • Tocando Solo
    • Ensinando Solo (Parte 1)
    • Ensinando Solo (Parte 2)
    • Ensinando Solo (Parte 3)
    • Ensinando Solo (Parte 4)
    • Ensinando Solo (Parte 5)
    • Ensinando Solo (Parte 6)
    • Ensinando Solo (Parte 7)
    • Ensinando Solo (Parte 8)
    • Ensinando Solo (Parte 9)
    • Ensinando Solo (Parte 10)
    • Encerramento

    Cifra Club Pro

    Aproveite o Cifra Club com benefícios exclusivos e sem anúncios
    Cifra Club Pro
    Aproveite o Cifra Club com benefícios exclusivos e sem anúncios
    OK