Cifra Club

Aprenda

Crazy Train

Ozzy Osbourne

Tab de baixo: Versão 7
Intro
-----|-------------------------------|
-----|-------------------------------|   X3
-----|----------------5-5------------|
-2-2-|-5-5--0-0--2-2-------0-0--2-2--|

on fourth time
-------------------------------------|
-------------------------------------|
---------------5555555-77777777------|
-5-5--0-0-2-2------------------------|

verse
-------------------------------------|
-------------7-6-4-------------------|
--------------0-0-0-7----------------|
-5-5-5-5-5-5-------------------------|

pre-chorus
-------------------------------------|
-------------------------------------|
--------------5----------------------|
-2-0-2----2-4--0-2-4-5-4-2-----------|

chorus                  1st time         2nd time
--------------------|---------------|------------------------|
--------------------|4-4-4-4-4-4-4--|------------------------|
0000----------------|---------------|------------------------|
------4-2-000000000-|-2-2-2-2-2-2-2-|-2-0-2--2-4-5-4-2-0-2-4-|

verse
-------------------------------------|
-------------7-6-4-------------------|
--------------0-0-0-7----------------|
-5-5-5-5-5-5-------------------------|

pre-chorus
-------------------------------------|
-------------------------------------|
--------------5----------------------|
-2-0-2----2-4--0-2-4-5-4-2-----------|

chorus                  1st time         2nd time
--------------------|---------------|------------------------|
--------------------|4-4-4-4-4-4-4--|------------------------|
0000----------------|---------------|------------------------|
------4-2-000000000-|--2-2-2-2-2-2-2|-2-0-2--2-4-5-4-2-0-2-4-|

post-chorus
------|---------------------------------|----------------------|
------|---------------------------------|----------------------|
------|-----------------5-5-------------|-5555555555-777777777-|
-2-2-|-5-5--0-0--2-2-------0-0--2-2--|-------------------------|

guitar solo(bass interlude)
------------------------------------------------------------|
-444444444-22-000000000000----------------------------------|
---------------------------44-22222222222222----------------|
---------------------------------------------4-2-0000000000-|

intro                                    last time
-----|-------------------------------|-------------------|
-----|-------------------------------|-------------------|   
-----|----------------5-5------------|---5555555-7777777-|
-2-2-|-5-5--0-0--2-2-------0-0--2-2--|-------------------|

verse
-------------------------------------|
-------------7-6-4-------------------|
--------------0-0-0-7----------------|
-5-5-5-5-5-5-------------------------|

pre-chorus
-------------------------------------|
-------------------------------------|
--------------5----------------------|
-2-0-2----2-4--0-2-4-5-4-2-----------|

chorus                  1st time         2nd time
--------------------|---------------|------------------------|
--------------------|4-4-4-4-4-4-4--|------------------------|
0000----------------|---------------|------------------------|
------4-2-000000000-|--2-2-2-2-2-2-2|-2-0-2--2-4-5-4-2-0-2-4-|

outro(until fade out)
------|---------------------------------|
------|---------------------------------|   
------|-----------------5-5-------------|
-2-2-|-5-5--0-0--2-2-------0-0--2-2-----|
Composição de Bob Daisley / Ozzy Osbourne / Randy Rhoads
Colaboração e revisão:
  • Rodrigo Vieira
125 exibições

0 comentários

Ver todos os comentários
00:00 / 00:00
outros vídeos desta música
repetir qualidade Automático
Outros vídeos desta música
00:00 / 00:00
Automático
Capítulos
  • Início
  • Tocando a múisica
  • Tocando Introdução
  • Ensinando Introdução
  • Tocando Primeira Parte
  • Ensinando Primeira Parte
  • Tocando Refrão
  • Ensinando Refrão
  • Tocando Primeiro Interlúdio
  • Ensinando Primeiro Interlúdio
  • Tocando Segundo Interlúdio
  • Ensinando Segundo Interlúdio
  • Tocando Terceiro Interlúdio
  • Ensinando Terceiro Interlúdio
  • Tocando Terceira Parte
  • Ensinando Terceira Parte
  • Tocando Base do Solo de Guitarra
  • Ensinando Base do Solo de Guitarra
  • Tocando Final
  • Ensinando Final
  • Encerramento

Cifra Club Pro

Aproveite o Cifra Club com benefícios exclusivos e sem anúncios
Cifra Club Pro
Aproveite o Cifra Club com benefícios exclusivos e sem anúncios
OK