Cifra Club

Aprenda

Dee

Ozzy Osbourne

Cifra: Principal (violão e guitarra)
tom: G
                       harm.
|---7--------7---5-------7------7-------7---10------10----|
|--------7h8-------------7-----------7------------8-------|
|------7---------4-------7---------7-----------7----------|
|----------------0-------7------9------------9------------|
|--10-----------------------------------------------------|
|---------------------------------------------------------|

|------------12---12------7-------7-----------------------|
|---------10------------------7h8-----10---------8-----8--|
|-------9--------------------7----------------------6-----|
|--9/11---------------------------------------------------|
|------------------------10------------9---------7--------|
|---------------------------------------------------------| 

|---------------------0---0-------------------------------|
|---7-----5-----3------------5p3---2--3---3----3----------|
|-------------------------------------------------2-------|
|---------------------------------------------------------|
|---5-----4-----2------------0------------2---------------|
|---------------------3-----------------------------------|

|-0--------2h3p2p0---2-----2--------------0-2-3-----------|
|----3-------------------0---0-----------------------0----|
|----------------------2------------2--------------0---0--|
|--------------------1---------------------------2--------|
|---------------------------------2-----------------------|
|-----------------------------------------3-2-0-----------|

                        harm.
|-3p2--2p0---0-----------12-------------------------- 2-3-|
|----------3----2-----3-------------------------------3-5-|
|------------------0-----12----2h4p2p0--------------------|
|------------------------------------4p2p0----------------|
|------4--------0--------------------------4p2p0--5-------|
|---------------------------------------------------------|

|-5h7p5------------0-----2-3-5-7h9h7-----------0---5p3----|
|--------3----- 3--------3-5-7--------2------3------------|
|----------- 0----------------------------0---------------|
|--------------------------------------------------0------|
|--------2----------------------------0-------------------|
|---------------------------------------------------------|

|--3p2--2p0--2p0-----0---------0--------0-----------------|
|-----------------3-----5/3--3---2p3-3----2----3--3-------|
|--------------------------------------------0------2-----|
|-----------------------------------------------------0---|
|------------4---------------2---0--------0-------2-----2-|
|---------------------------------------------------------|

                harm.
|---3p2---2p0---------------------------------------------|
|----------------7----------------------------------------|
|----------------7----------------------------------------|
|----------------7----------------------------------------|
|---------4-----------------------------------------------|
|---0-----------------------------------------------------|
Composição de Randy Rhoads
22.489 exibições
    • ½ Tom
    • A
    • Bb
    • B
    • C
    • Db
    • D
    • Eb
    • E
    • F
    • F#
    • G
    • Ab
  • Adicionar à lista

    0 comentários

    Ver todos os comentários

    Conseguiu tocar?

    3 Tocaram 0 Ainda não

    Grave um vídeo tocando Dee e nos envie!

    00:00 / 00:00
    outros vídeos desta música
    repetir qualidade Automático
    Outros vídeos desta música
    00:00 / 00:00
    Automático

    Cifra Club Pro

    Aproveite o Cifra Club com benefícios exclusivos e sem anúncios
    Cifra Club Pro
    Aproveite o Cifra Club com benefícios exclusivos e sem anúncios
    OK