Cifra Club

Aprenda

Dreamer

Ozzy Osbourne

Cifra: Principal (violão e guitarra)
Tom: Db
Intro
     F7M
E|-------------------------------------|
B|-------------------------------------|
G|------13-13-11-11-10-10-8-8-10-10~---|
D|-------------------------------------|
A|-12-8--------------------------------|
E|-10-8--------------------------------|

Verso 1:

     Db                   Bbm
E|-4---4---4---4---4---6/8-6~----------|
B|---6---6---6---6---6-----------------|
G|-------------------------------------|
D|-------------------------------------|
A|-------------------------------------|
E|-------------------------------------|

     Db                   Bbm
E|-4---4---4---4---4---8-8-6~----------|
B|---6---6---6---6---6-----------------|
G|-------------------------------------|
D|-------------------------------------|
A|-------------------------------------|
E|-------------------------------------|

     Gb                             Ebm
E|-9--6--9--6--9--6--9--6--9--6--11/13-11-11~-----|
B|------------------------------------------------|
G|------------------------------------------------|
D|------------------------------------------------|
A|------------------------------------------------|
E|------------------------------------------------|

     Ab
E|----------8----------|
B|--11--11-----9~\-----|
G|---------------------|
D|---------------------|
A|---------------------|
E|---------------------|

   Db                   Bbm
E|-4---4---4---4---4---6/8-6~----------|
B|---6---6---6---6---6-----------------|
G|-------------------------------------|
D|-------------------------------------|
A|-------------------------------------|
E|-------------------------------------|

     Db                   Bbm
E|-4---4---4---4---4---8-8-6~----------|
B|---6---6---6---6---6-----------------|
G|-------------------------------------|
D|-------------------------------------|
A|-------------------------------------|
E|-------------------------------------|

     Gb                             Ebm
E|-9--6--9--6--9--6--9--6--9--6--11/13-11-11~-----|
B|------------------------------------------------|
G|------------------------------------------------|
D|------------------------------------------------|
A|------------------------------------------------|
E|------------------------------------------------|

     Ab
E|----------8----------|
B|--11--11-----9~\-----|
G|---------------------|
D|---------------------|
A|---------------------|
E|---------------------|


REFRAO:

     Db                 Bbm
E|----------11---9~--9-8-9-8---8~----|
B|--9-9-9--------------------9-------|
G|-----------------------------------|
D|-----------------------------------|
A|-----------------------------------|
E|-----------------------------------|

     Fm                     Ab
E|-4--6--4--11--13----------------------------------|
B|------------------14~--14--13--14--13------13~\---|
G|---------------------------------------13---------|
D|--------------------------------------------------|
A|--------------------------------------------------|
E|--------------------------------------------------|

Verso 2:

    Db                    Bbm
E|-4-4---4---4--4---4---6/8-6~-------|
B|-----6---6---6-6----6--------------|
G|-----------------------------------|
D|-----------------------------------|
A|-----------------------------------|
E|-----------------------------------|

   Db                     Bbm
E|-4-4---4---4--4---4---8-8p6~-------|
B|-----6---6---6-6----6--------------|
G|-----------------------------------|
D|-----------------------------------|
A|-----------------------------------|
E|-----------------------------------|

     Gb                             Ebm
E|-9-9-6--9--6--9p6--9--6--9--6--11/13-11-11~----|
B|-----------------------------------------------|
G|-----------------------------------------------|
D|-----------------------------------------------|
A|-----------------------------------------------|
E|-----------------------------------------------|

     Ab
E|----------8----------|
B|--11--11-----9~\-----|
G|---------------------|
D|---------------------|
A|---------------------|
E|---------------------|

 2°REFRAO:


     Db                 Bbm
E|----------11---9~--9p8-9-8----8~-8\6\4~----|
B|--9-11-9--------------------9--------------|
G|-------------------------------------------|
D|-------------------------------------------|
A|-------------------------------------------|
E|-------------------------------------------|

     Fm                     Ab
E|-13--16--13--11--13-------------------------------------|
B|---------------------14~--14--13--14--13-14\12--13~\----|
G|--------------------------------------------------------|
D|--------------------------------------------------------|
A|--------------------------------------------------------|
E|--------------------------------------------------------|

Ponte:

     Ebm                     Ab
E|-11-11-9-11p9-11-9----9-11/13-11-9-11~----|
B|-------------------11---------------------|
G|------------------------------------------|
D|------------------------------------------|
A|------------------------------------------|
E|------------------------------------------|
     Ebm                     Ab
E|-11-11-9-11p9-11-9----9-9\8~--------------|
B|-------------------11---------------------|
G|------------------------------------------|
D|------------------------------------------|
A|------------------------------------------|
E|------------------------------------------|

     Ebm                     Ab
E|-11-11-9-11p9-11-9----9-11/13-11-9-11~----|
B|-------------------11---------------------|
G|------------------------------------------|
D|------------------------------------------|
A|------------------------------------------|
E|------------------------------------------|
     Ebm                     Ab
E|-11-11-9-11p9-11-9----9-9\8~--------------|
B|-------------------11---------------------|
G|------------------------------------------|
D|------------------------------------------|
A|------------------------------------------|
E|------------------------------------------|

     Ab
E|-13--16--13-------------------------------|
B|------------14~---------------------------|
G|------------------------------------------|
D|------------------------------------------|
A|------------------------------------------|
E|------------------------------------------|

SOLO:


E|--------------------------------------------------------|
B|------------------------------4h6h7-9/11----------------|
G|-----6-8-8b10r8p6-8---------6------------10~--8b10r8p6~-|
D|--/6----------------8~---/6-----------------------------|
A|--------------------------------------------------------|
E|--------------------------------------------------------|

E|-----------------14-16/18------------------------------------------|
B|-----14-16-16/18----------18~--16b18r16b18~--16b18~~~-18r16p14~13~-|
G|-/13---------------------------------------------------------------|
D|-------------------------------------------------------------------|
A|-------------------------------------------------------------------|
E|-------------------------------------------------------------------|

E|--------------------|
B|-16b18~~~b----13~~~-|
G|--------------------|
D|--------------------|
A|--------------------|
E|--------------------|

E|-------------------------------------------|
B|-------------------------------14-16-18~---|
G|-------------------13-15-17-17-------------|
D|----------13-15-16-------------------------|
A|-13-15-16----------------------------------|
E|-------------------------------------------|

Passagem:

     F7M
E|--------------------------------|
B|--------------------------------|
G|-8-8-6-6-5-5-3-3-5-5~-----------|
D|--------------------------------|
A|--------------------------------|
E|--------------------------------|

Verso 3:

    Db                    Bbm
E|-4-4---4---4--4---4---6/8-6~-------|
B|-----6---6---6-6----6--------------|
G|-----------------------------------|
D|-----------------------------------|
A|-----------------------------------|
E|-----------------------------------|

   Db                     Bbm
E|-4-4---4---4--4---4---8-8p6~-------|
B|-----6---6---6-6----6--------------|
G|-----------------------------------|
D|-----------------------------------|
A|-----------------------------------|
E|-----------------------------------|

     Gb                             Ebm
E|-9-9-6--9--6--9p6--9--6--9--6--11/13-11-11~----|
B|-----------------------------------------------|
G|-----------------------------------------------|
D|-----------------------------------------------|
A|-----------------------------------------------|
E|-----------------------------------------------|

     Ab
E|----------8----------|
B|--11--11-----9~\-----|
G|---------------------|
D|---------------------|
A|---------------------|
E|---------------------|

3° Refrao:
      Db                 Bbm
E|-----------11---9~--9\8-9-8---8~--8\6\4~------|
B|--999-11-9------------------9-----------------|
G|----------------------------------------------|
D|----------------------------------------------|
A|----------------------------------------------|
E|----------------------------------------------|

     Fm                     Ab
E|-4--4--4--11--13----------------------------------------------|
B|------------------14~--14--13--14--13-13\12----13~-13-11------|
G|--------------------------------------------12-----------13~--|
D|--------------------------------------------------------------|
A|--------------------------------------------------------------|
E|--------------------------------------------------------------|

     Fm                     Ab
E|-13--16--13--11--13-------------------------------------------------------|
B|---------------------14~--14--13--14--13-14p13--12-13~-13-11h13p11--------|
G|-------------------------------------------------------------------13~----|
D|--------------------------------------------------------------------------|
A|--------------------------------------------------------------------------|
E|--------------------------------------------------------------------------|
     Fm                     Ab
E|------------11-13------------------------------|
B|------------------14~---13-13-13-14-13\11-13~--|
G|--13-15-13-------------------------------------|
D|-----------------------------------------------|
A|-----------------------------------------------|
E|-----------------------------------------------|

    Ab
E|-13--16--13--11\9~~----------------------------|
B|-----------------------------------------------|
G|-----------------------------------------------|
D|-----------------------------------------------|
A|-----------------------------------------------|
E|-----------------------------------------------|

Frase final:

     F7M
E|-----------------------------------------------------------------|
B|-------------------------------------------------------1---------|
G|------------------------------------------------------2-2--------|
D|-6-6-4-4-3-3-1-1-3-3~----6-6-4--4--3--3---1---1---3--3-----------|
A|-----------------------------------------------------------------|
E|-----------------------------------------------------------------|


 letra:

intro

verso 1:

Db                               Bbm
Gazing through the window at the world outside
Db                             Bbm
Wondering will mother earth survive
Gb                             Eb             Ab
Hoping that mankind will stop abusing her sometime

Db                              Bbm
After all there's only just the two of us
    Db                                 Bbm
And here we are still fighting for our lives
Gb                        Eb                      Ab
Watching all of history repeat itself, Time after time

refrao 1:

           Db
I'm just a dreamer
  Bbm            Fm        Ab
I dream my life away
           Db
I'm just a dreamer
  Bbm            Fm        Ab
Who dreams of better days

verso 2:

Db                            Bbm
I watch the sun go down like everyone of us
Db                            Bbm
I'm hoping that the dawn will bring good signs
Gb                            Eb                     Ab
A better place for those who will come after us, this time

refrao 2:
           Db
I'm just a dreamer
  Bbm            Fm          Ab
I dream my life away, oh yeah
           Db
I'm just a dreamer
  Bbm            Fm          Ab
Who dreams of better days

ponte:

Ebm                     Ab
Your higher power may be God or Jesus Christ
Ebm                     Ab
It doesn't really matter much to me
Ebm                     Ab
Without each others help there ain't no hope for us
Ebm                     Ab
I'm living in a dream of fantasy, oh yeah yeah yeah

solo

passagem

[Terceira Parte]

Db                         Bbm
If only we could all just find serenity
Db                         Bbm
It would be nice if we could live as one
Gb                         Eb                 Ab
When will all this anger hate and bigotry be done

[Refrão]

           Db
I'm just a dreamer
  Bbm            Fm        Ab
I dream my life away, today
           Db
I'm just a dreamer
  Bbm            Fm        Ab
Who dreams of better days, oh yeah
           Db
I'm just a dreamer
  Bbm            Fm        Ab
Who's searching for the way, today
           Db
I'm just a dreamer
  Bbm            Fm        Ab
Dreaming my life away, oh yeah yeah yeah

frase final
Composição de Marti Frederiksen / Ozzy Osbourne
Colaboração e revisão:
105.085 exibições
    • ½ Tom
    • A
    • Bb
    • B
    • C
    • Db
    • D
    • Eb
    • E
    • F
    • F#
    • G
    • Ab
  • Adicionar à lista

    0 comentários

    Mostrar mais comentários

    Conseguiu tocar?

    21 Tocaram 0 Ainda não

    Grave um vídeo tocando Dreamer e mande pra gente!

    00:00 / 00:00
    outros vídeos desta música
    repetir qualidade Automático
    Outros vídeos desta música
    00:00 / 00:00
    Automático
    Capítulos
    • Tocando a música
    • Dicas Iniciais / Equipamentos
    • Solo (68 bpm)
    • Solo (60bpm)
    • Encerramento
    • Ficha Técnica

    Cifra Club Pro

    Aproveite o Cifra Club com benefícios exclusivos e sem anúncios
    7 dias grátis
    Cifra Club Pro
    Aproveite o Cifra Club com benefícios exclusivos e sem anúncios
    7 dias grátis
    OK