Cifra Club

Aprenda

Hellraiser

Ozzy Osbourne

Cifra: Principal (violão e guitarra)
tom: F# (forma dos acordes no tom de G) Afinação: Eb Ab Db Gb Bb Eb
(Guitarra 1)

D#||------------------|-------------------|---------------------|
A#||------------------|-------------------|---------------------|
Gb||------------------|----------------x--|----x----------------|
Db||------------------|----------------x--|----x----------------|
Ab||------------------|----------------x--|----x----------------|
D#||------------------|-------------------|--3---3--------------|

Eb|-------------------|---------------------|-------------------|
Bb|-------------------|---------------------|-------------------|
Gb|----------------x--|----x----------------|----------------x--|
Db|----------------x--|----x----------------|----------------x--|
Ab|----------------x--|----x----------------|----------------x--|
Eb|-------------------|--3---3--------------|-------------------|

Eb|---------------------|--------------------|-----------------------------|
Bb|---------------------|----------16/-------|-----------------------------|
Gb|----x----------------|----------15/-------|--5r-3b4r3---3--3------------|
Db|----x----------------|--------------------|-----------5-3----5~~--------|
Ab|----x----------------|--------------------|-----------5-----------------|
Eb|--3---3--------------|--------------------|-----------------------------|

Eb|-------------------|-----------------------------|
Bb|-------------------|-----------------------------|
Gb|-----------------0-|--5r-3b4r3---3--3-5----------|
Db|-------------------|-----------5-3--3-5----------|
Ab|-------------------|------------------3----------|
Eb|-------------------|-----------------------------|

Eb|----------------------------------------------------|-----------------------------|
Bb|------x---------------------------------------------|-----------------------------|
Gb|------x-------------------------------------------0-|--5r-3b4r3---3--3------------|
Db|----------------------------------------------------|-----------5-3----5~---------|
Ab|----------------------------------------------------|-----------5-----------------|
Eb|---------8/-22-21-20-19-17-15-14-12-11-10-9-8-7-6---|-----------------------------|

Eb|-------------------|-----------------------------|
Bb|-------------------|-----------------------------|
Gb|-----------------0-|--5r-3b4r3---3--3-5----------|
Db|-------------------|-----------5-3--3-5----------|
Ab|-------------------|------------------3----------|
Eb|-------------------|-----------------------------|

Eb|------------------------------------------------------|-------------------|
Bb|------x-----------------------------------------------|-------------------|
Gb|------x-----------------------------------------------|-------------------|
Db|------------------------------------------------------|--5----------------|
Ab|------------------------------------------------------|--5----------------|
Eb|---------8/-22-21-20-19-17-15-14-12-11-10-9-8-7-6-5-4-|--3----------------|

Eb|------------------|------------------|--------------------|
Bb|------------------|------------------|--------------------|
Gb|------------------|------------------|------------5-----x-|
Db|------------------|------------------|------------5-----x-|
Ab|------------------|------------------|------------3-----x-|
Eb|------------------|------------------|--------------------|

Eb|-----------------------|-----------------------|-------------------|
Bb|-----------------------|-----------------------|-------------------|
Gb|---------------5-------|---------------5-------|-------------------|
Db|--5-x-5--------5-----x-|--5-x-5--------5-----x-|--5----------------|
Ab|--5-x-5--------3-----x-|--5-x-5--------3-----x-|--5----------------|
Eb|--3-x-3--------------x-|--3-x-3--------------x-|--3----------------|

Eb|-----------------------|---------------------|------------------------------|
Bb|-----------------------|---------------------|------------------------------|
Gb|---------------5--5----|----------5----------|--------------------3-----5---|
Db|--5-x-5--------5--5----|--3----x--5----------|--------------------3-----5---|
Ab|--5-x-5--------3--3----|--3----x--3----------|------------------------5-----|
Eb|--3-x-3----------------|--1----x-------------|--1-1-2-2-3-3-1-2-3-----------|

Eb|------------------------|-------------6b--------|---------------------|
Bb|------------------------|-----------------------|------------------x--|
Gb|----------5-------------|--------5--------------|---------3--------x--|
Db|--3----x--5-------------|--5--5--5--------------|----5----3--------x--|
Ab|--3----x--3----3--3--3--|--3--3--3--------------|----5----1-----------|
Eb|--1----x----------------|-----------3-----------|----3----------------|

Eb|----------------------------|---------------------|-----------------------|
Bb|--6-------------------------|------------------x--|--6--------------x-----|
Gb|--5------5--5r-5-3---3b3----|---------3--------x--|--5------5-------x-----|
Db|--3------2---------5-----5--|----5----3--------x--|--3------2---2---x-----|
Ab|----------------------------|----5----1-----------|-------------2---------|
Eb|----------------------------|----3----------------|-------------0-------2-|

Eb|---------------------|----------------------------|-------------------|
Bb|---------------------|--6-------------------------|-------------------|
Gb|---------3--------x--|--5------5--5r-5-3---3b3----|--3----------------|
Db|----5----3--------x--|--3------2---------5-----5--|--3----------------|
Ab|----5----1--------x--|----------------------------|--1----------------|
Eb|----3----------------|----------------------------|-------------------|

Eb|-----18b-------------|-------------------------|-------------------|
Bb|---------------------|-------------------------|-------------------|
Gb|---------------------|--5r-3---3--3------------|-----------------0-|
Db|---------------------|-------5-3----5~---------|-------------------|
Ab|--3------------------|-------5-----------------|-------------------|
Eb|--1------------------|-------------------------|-------------------|

Eb|-------------------------|
Bb|-------------------------|
Gb|--5r-3---3--3-5----------|
Db|-------5-3--3-5----------|
Ab|--------------3----------|
Eb|-------------------------|

Eb|------------------------------------------------------|---------------------|
Bb|------x-----------------------------------------------|---------------------|
Gb|------x-----------------------------------------------|--0----------5-----x-|
Db|------------------------------------------------------|--0----------5-----x-|
Ab|------------------------------------------------------|-------------3-----x-|
Eb|---------8/-22-21-20-19-17-15-14-12-11-10-9-8-7-6-5-4-|--3------------------|

Eb|-----------------------|-----------------------|-----------------------|
Bb|-----------------------|-----------------------|-----------------------|
Gb|---------------5-------|---------------5-------|---------------5-------|
Db|--5-x-5--------5-----x-|--5-x-5--------5-----x-|--5-x-5--------5-----x-|
Ab|--5-x-5--------3-----x-|--5-x-5--------3-----x-|--5-x-5--------3-----x-|
Eb|--3-x-3--------------x-|--3-x-3--------------x-|--3-x-3--------------x-|

Eb|---------------------------|---------------------------|
Bb|---------------------------|---------------------------|
Gb|---------------------------|---------------------------|
Db|--5--------------------3---|--5--------------------3---|
Ab|--5--------------------3---|--5--------------------3---|
Eb|--3-x-3--3--3--3--3--3-----|--3-x-3--3--3--3--3--3-----|

Eb|---------------------------|---------------------------|---------------------|
Bb|---------------------------|---------------------------|---------------------|
Gb|---------------------------|---------------------------|----------5----------|
Db|--5--------------------3---|--5--------------------3---|--3----x--5----------|
Ab|--5--------------------3---|--5--------------------3---|--3----x--3----------|
Eb|--3-x-3--3--3--3--3--3-----|--3-x-3--3--3--3--3--3-----|--1----x-------------|

Eb|------------------------------|------------------------|-------------6b--------|
Bb|------------------------------|------------------------|-----------------------|
Gb|--------------------3-----5---|----------5-------------|--------5--------------|
Db|--------------------3-----5---|--3----x--5-------------|--5--5--5--------------|
Ab|------------------------5-----|--3----x--3----3--3--3--|--3--3--3--------------|
Eb|--1-1-2-2-3-3-1-2-3-----------|--1----x----------------|-----------3-----------|

Eb|---------------------|----------------------------|---------------------|
Bb|------------------x--|--6-------------------------|------------------x--|
Gb|---------3--------x--|--5------5--5r-5-3---3b3----|---------3--------x--|
Db|----5----3--------x--|--3------2---------5-----5--|----5----3--------x--|
Ab|----5----1-----------|----------------------------|----5----1-----------|
Eb|----3----------------|----------------------------|----3----------------|

Eb|-----------------------|---------------------|----------------------------|
Bb|--6--------------x-----|---------------------|--6-------------------------|
Gb|--5------5-------x-----|---------3--------x--|--5------5--5r-5-3---3b3----|
Db|--3------2---2---x-----|----5----3--------x--|--3------2---------5-----5--|
Ab|-------------2---------|----5----1--------x--|----------------------------|
Eb|-------------0-------2-|----3----------------|----------------------------|

Eb|-------------------|----------------------|----------------------------------|
Bb|-------------------|--6--6------5~--5b----|----------------------------------|
Gb|--3----------------|--5--5------5~--5b----|----------------------------------|
Db|--3----------------|--3--3----------------|----------------------------------|
Ab|--1----------------|----------------------|--------------------5-5-5-3-4-----|
Eb|-------------------|----------------------|--3-3-4-4-5-5-3-4-5-----------5-3-|

Eb|----------------------------------|----------------------------------|
Bb|----------------------------------|----------------------------------|
Gb|----------------------------------|----------------------------------|
Db|----------------------------------|----------------------------------|
Ab|--------------------3-3-3-1-2-----|--------------------5-5-5-3-4-----|
Eb|--1-1-2-2-3-3-1-2-1-----------3-5-|--3-3-4-4-5-5-3-4-5-----------5-3-|

Eb|--------------|----------------------------------|
Bb|--------------|----------------------------------|
Gb|----3---------|----------------------------------|
Db|----3-----3---|----------------------------------|
Ab|--1-1-----3---|--------------------5-5-5-3-4-----|
Eb|--------1-1---|--3-3-4-4-5-5-3-4-5-----------5-3-|

Eb|----------------------------------|----------------------------------|
Bb|----------------------------------|----------------------------------|
Gb|----------------------------------|----------------------------------|
Db|----------------------------------|----------------------------------|
Ab|--------------------3-3-3-1-2-----|--------------------5-5-5-3-4-----|
Eb|--1-1-2-2-3-3-1-2-1-----------3-5-|--3-3-4-4-5-5-3-4-5-----------5-3-|

Eb|--------------|----------------------------------|
Bb|--------------|----------------------------------|
Gb|----3---------|----------------------------------|
Db|----3-----3---|----------------------------------|
Ab|--1-1-----3---|--------------------5-5-5-3-4-----|
Eb|--------1-1---|--3-3-4-4-5-5-3-4-5-----------5-3-|

Eb|----------------------------------|----------------------------------|
Bb|----------------------------------|----------------------------------|
Gb|----------------------------------|----------------------------------|
Db|----------------------------------|----------------------------------|
Ab|--------------------3-3-3-1-2-----|--------------------5-5-5-3-4-----|
Eb|--1-1-2-2-3-3-1-2-1-----------3-5-|--3-3-4-4-5-5-3-4-5-----------5-3-|

Eb|--------------|----------------------------------|
Bb|--------------|----------------------------------|
Gb|----3---------|----------------------------------|
Db|----3-----3---|----------------------------------|
Ab|--1-1-----3---|--------------------5-5-5-3-4-----|
Eb|--------1-1---|--3-3-4-4-5-5-3-4-5-----------5-3-|

Eb|----------------------------------|----------------------------------|
Bb|----------------------------------|----------------------------------|
Gb|----------------------------------|----------------------------------|
Db|----------------------------------|----------------------------------|
Ab|--------------------3-3-3-1-2-----|--------------------5-5-5-3-4-----|
Eb|--1-1-2-2-3-3-1-2-1-----------3-5-|--3-3-4-4-5-5-3-4-5-----------5-3-|

Eb|--------------------------|--------------------|--------------------|
Bb|--------------------------|--------------------|--6-----------------|
Gb|----3-----------5-----3---|---------3----------|--5------5----------|
Db|----3-----3-----5-----3---|---------3----------|--3------2----------|
Ab|--1-1-----3---3-3---1-1---|--5------1----------|--------------------|
Eb|--------1-1---------------|--3-----------------|--------------------|

Eb|--------------------|--------------------|--------------------|
Bb|--------------------|--6-----------------|--------------------|
Gb|---------3----------|--5------5----------|---------3----------|
Db|---------3----------|--3------2----------|---------3----------|
Ab|--5------1----------|--------------------|--5------1----------|
Eb|--3-----------------|--------------------|--3-----------------|

Eb|--------------------|--------------------------|--------------------------|
Bb|--6-----------------|--------------------------|--------------------------|
Gb|--5------5----------|--------------------------|--------------------------|
Db|--3------2----------|--3--3--3--3--3--3--3--3--|--5--5--5--5--5--5--5--5--|
Ab|--------------------|--1--1--1--1--1--1--1--1--|--3--3--3--3--3--3--3--3--|
Eb|--------------------|--------------------------|--------------------------|

Eb|--------------------------|--3----------------|------------------|
Bb|--------------------------|--3----------------|------------------|
Gb|----3-----------5-----3---|--0----------------|------------------|
Db|----3-----3-----5-----3---|--0----------------|------------------|
Ab|--1-1-----3---3-3---1-1---|-------------------|------------------|
Eb|--------1-1---------------|--3----------------|------------------|

Eb|------------------|------------------|------------------|---------------------|
Bb|------------------|------------------|------------------|---------------------|
Gb|------------------|------------------|------------------|----------5----------|
Db|------------------|------------------|------------------|--3----x--5----------|
Ab|------------------|------------------|------------------|--3----x--3----------|
Eb|------------------|------------------|------------------|--1----x-------------|

Eb|------------------------------|--------------------|--------------------------|
Bb|------------------------------|---------6----------|--------------------------|
Gb|--------------------3-----5---|---------5----------|--------------------------|
Db|--------------------3-----5---|--3------3----------|--5--5--5--5--5--5--5--5--|
Ab|------------------------5-----|--3-----------------|--5--5--5--5--5--5--5--5--|
Eb|--1-1-2-2-3-3-1-2-3-----------|--1-----------------|--3--3--3--3--3--3--3--3--|

Eb|---------------------|----------------------------|---------------------|
Bb|------------------x--|--6-------------------------|------------------x--|
Gb|---------3--------x--|--5------5--5r-5-3---3b3----|---------3--------x--|
Db|----5----3--------x--|--3------2---------5-----5--|----5----3--------x--|
Ab|----5----1-----------|----------------------------|----5----1-----------|
Eb|----3----------------|----------------------------|----3----------------|

Eb|-----------------------|---------------------|----------------------------|
Bb|--6--------------x-----|---------------------|--6-------------------------|
Gb|--5------5-------x-----|---------3--------x--|--5------5--5r-5-3---3b3----|
Db|--3------2---2---x-----|----5----3--------x--|--3------2---------5-----5--|
Ab|-------------2---------|----5----1--------x--|----------------------------|
Eb|-------------0-------2-|----3----------------|----------------------------|

Eb|-------------------|-----18b-------------|-------------------------|
Bb|-------------------|---------------------|-------------------------|
Gb|--3----------------|---------------------|--5r-3---3--3------------|
Db|--3----------------|---------------------|-------5-3----5~---------|
Ab|--1----------------|--3------------------|-------5-----------------|
Eb|-------------------|--1------------------|-------------------------|

Eb|-------------------|-------------------------|
Bb|-------------------|-------------------------|
Gb|-----------------0-|--5r-3---3--3-5----------|
Db|-------------------|-------5-3--3-5----------|
Ab|-------------------|--------------3----------|
Eb|-------------------|-------------------------|

Eb|------------------------------------------------------|--19/-----------20b---|
Bb|------x-----------------------------------------------|--18/-----------------|
Gb|------x-----------------------------------------------|--19/-----------------|
Db|------------------------------------------------------|----------------------|
Ab|------------------------------------------------------|----------------------|
Eb|---------8/-22-21-20-19-17-15-14-12-11-10-9-8-7-6-5-4-|----------------------|

Eb|-----------------------------|-----------------------------|
Bb|-----------------------------|-----------------------------|
Gb|--------5-----------3--x-2---|--------5-----------3--x-2---|
Db|--------5-----------3--x-3---|--------5-----------3--x-3---|
Ab|-----------------------------|-----------------------------|
Eb|--3-3-3-----3-3-3-3----------|--3-3-3-----3-3-3-3----------|

Eb|-----------------------------|---------------------------||
Bb|-----------------------------|---------------------------||
Gb|--------5-----------3--x-2---|--------5----------3--2----||
Db|--------5-----------3--x-3---|--------5----------3--3----||
Ab|-----------------------------|---------------------------||
Eb|--3-3-3-----3-3-3-3----------|--3-3-3-----3-3-3----------||
Composição de Lemmy / Ozzy Osbourne / Zakk Wylde
Colaboração e revisão:
  • Gabriel Paparotti
  • marcos rolim
27.435 exibições
    • ½ Tom
    • A
    • Bb
    • B
    • C
    • Db
    • D
    • Eb
    • E
    • F
    • F#
    • G
    • Ab
  • Adicionar à lista

    0 comentários

    Ver todos os comentários

    Conseguiu tocar?

    0 Tocaram 3 Ainda não

    Grave um vídeo tocando Hellraiser e nos envie!

    00:00 / 00:00
    outros vídeos desta música
    repetir qualidade Automático
    Outros vídeos desta música
    00:00 / 00:00
    Automático

    Cifra Club Pro

    Aproveite o Cifra Club com benefícios exclusivos e sem anúncios
    Cifra Club Pro
    Aproveite o Cifra Club com benefícios exclusivos e sem anúncios
    OK