Cifra Club

Aprenda

Iron Man

Ozzy Osbourne

Cifra: Principal (violão e guitarra)
tom: F
Introdução

e|--------------------------------|--------------------------------|
B|--------------------------------|--------------------------------|
G|--------------------------------|--------------------------------|
D|--------------------------------|--------------------------------|
A|--------------------------------|--------------------------------|
E|(3)-------------1---------------|--------------------------------|

Riff 1

e|----------------------------------------------|------------------------------------|
B|----------------------------------------------|------------------------------------|
G|----------------------------------------------|------------------------------------|
D|-5-8--8-10-10-13/10--13/10--13/10---8--10-10--|------------------------------------|
A|-5-8--8-10-10-13/10--13/10--13/10---8--10-10--|------------------------------------|
E|-3-6--6-8--8--11/10--13/10--13/10---6--8--8---|------------------------------------|

Riff 2

e|--------------------------------|--------------------------------|
B|--------------------------------|--------------------------------|
G|--------------------------------|--------------------------------|
D|--------------------------------|10-9-10-9-10p9------------------|
A|2-------5-------5---7---7-------|------------5---5---7---7-------|
E|--------------------------------|--------------------------------|

Riff 3

e|--------------------------------|--------------------------------|
B|--------------------------------|--------------------------------|
G|--------------------------------|--------------------------------|
D|------------1-------------------|--------------------------------|
A|3---3---3-----------3-------2---|1---1---1-------0---1---1---2---|
E|--------------------------------|--------------1-----------------|

e|--------------------------------|--------------------------------|
B|--------------------------------|--------------------------------|
G|--------------------------------|--------------------------------|
D|------------1-------------------|--------------------------------|
A|3---3---3-----------3-------2---|1---1---1-----------------------|
E|--------------------------------|--------------------------------|

Riff 4

e|--------------------------------|--------------------------------|
B|--------------------------------|--------------------------------|
G|--------------------------------|--------------------------------|
D|10------------------------------|8-------------------------------|
A|8-------------------------------|6-------------------------------|
E|--------------------------------|--------------------------------|

Riff 1

Riff 6

e|--------------------------------|--------------------------------|
B|--------------------------------|--------------------------------|
G|7---5---------------------------|--------------------------------|
D|------------7-------6-------5---|----3---------------------------|
A|--------------------------------|------------3---3-h-5---5-------|
E|--------------------------------|--------------------------------|

Riff 7
e|--------------------------------|--------------------------------|
B|--------------------------------|--------------------------------|
G|--------------------------------|--------------------------------|
D|--------------------------------|--------------------------------|
A|--------------------------------|--------------------------------|
E|(3)-----------------------------|1-------------------------------|

Riff 8

e|--------------------------------|--------------------------------|
D|--------------------------------|--------------------------------|
G|--------------------------------|--------------------------------|
D|--------------------------------|--------------------------------|
A|8-p-6---8-------------------6h8-|6-------------------------------|
E|--------------------------------|--------------------------------|

e|--------------------------------|--------------------------------|
B|--------------------------------|--------------------------------|
G|--------------------------------|-----3---------------3----------|
D|--------------------------------|5----6----5-----6----5(6)-------|
A|8-p-6---8-----------------------|--------------------------6-----|
E|--------------------------------|--------------------------------|
                                            
          
Riff 9 (fim da música)

e|--------------------------------|
B|--------------------------------|
G|--------------------------------|
D|--------------------------------|
A|8-p-6---8-----------------------|
E|--------------------------------|
Composição de Bill Ward / Geezer Butler / Ozzy Osbourne / Tony Iommi
Colaboração e revisão:
  • Romulo Teixeira
  • felipe
  • Everton Pedro
253.600 exibições
    • ½ Tom
    • A
    • Bb
    • B
    • C
    • Db
    • D
    • Eb
    • E
    • F
    • F#
    • G
    • Ab
  • Adicionar à lista

    0 comentários

    Ver todos os comentários

    Conseguiu tocar?

    12 Tocaram 0 Ainda não

    Grave um vídeo tocando Iron Man e nos envie!

    00:00 / 00:00
    outros vídeos desta música
    repetir qualidade Automático
    Outros vídeos desta música
    00:00 / 00:00
    Automático

    Cifra Club Pro

    Aproveite o Cifra Club com benefícios exclusivos e sem anúncios
    Cifra Club Pro
    Aproveite o Cifra Club com benefícios exclusivos e sem anúncios
    OK