Cifra Club

Aprenda

Paranoid

Ozzy Osbourne

Cifra: Principal (violão e guitarra)
tom: E
(LIVE)

E||------------------------|--------------------------|------------------------|
B||------------------------|--------------------------|------------------------|
G||------------------------|----------7--9-------7--9-|------------------------|
D||--7h-9----7--9----7--9--|-----7--9------7--9-------|--7h-9----7h-9----7h-9--|
A||--7-------7h------7-----|--- ----------------------|--7-------7-------7-----|
E||------------------------|--------------------------|------------------------|


                                                                              
------------------ --------|------------------------|---------------------------|
-------------------------- |------------------------|---------------------------|
-----------7--9-------7--9-|------------------------|--------7--9---------7--9--|
-----7--9-------7--9-------|--7h-9----7--9----7--9--|--7--9--------7--9---------|
------------------- -------|--7-------7h------7-----|---------------------------|
-------------------------- |------------------------|---------------------------|


                                                                             
------------------------|----------------------------|------------------------|
------------------------|----------------------------|------------------------|
------------------------|--------7--9---------7--9---|------------------------|
--7h-9----7h-9----7h-9--|--7--9--------7--9----------|--------9----------9----|
--7-------7-------7-----|----------------------------|--------7----------7----|
------------------------|----------------------------|------------------------|


                                                                               
-----------------------------|------------------------|-
-----------------------------|-------7-----------------|
-----------------------------|-------5------------------|
--------9---------7--9-------|---7------7--9-------------|
--------7---7--9-------7--9--|---5------5--7-------------|
-----------------------------|------------------------
Repete com palm mute no acorde de Em. 

                                                                            

                                                                 
---------------------|-------------------|----------------------|
---------------------|-------------------|----------------------|
--7------------------|--9----------------|----------------------|
--5--7------9--------|--9----------------|--10--------12--------|
-----5------7--------|--7----------------|--10--------12--------|
---------------------|-------------------|--8---------10--------|


                                                                     
-------12b---15--12------|-------------------|----------------------|
-------------------------|-------------------|----------------------|
--9----------------------|--9----------------|----------------------|
--9----------------------|--9----------------|--10--------12--------|
--7----------------------|--7----------------|--10--------12--------|
-------------------------|-------------------|--8---------10--------|


                                                            
----------------------------------|------------------------|
----------------------------------|------------------------|
--9-------------------------------|--------9----------9----|
--9-------------------------------|--------9----------9----|
--7-------------------------------|--------7----------7----|
-------12\11\10\9\8\7\6\5\4\3\2\1-|--0--0--0----0--0--0----|


                                                                           
-------------------------|------------------------|-----------------------|
-------------------------|------------------------|-----------------7-8---|
--------9----------------|--------7----------7----|--7--------------------|
--------9----------------|--------7----------7----|--5--7------9----------|
--------7----------5h-7--|--5--5--5----5--5--5----|-----5------7----------|
--0--0--0----5h-7--------|------------------------|-----------------------|


                                                                            
------------------------|-------------------------|------------------------|
------------------------|-------------------------|------------------------|
--------9----------9----|--------9----------------|--------7----------7----|
--------9----------9----|--------9----------------|--------7----------7----|
--------7----------7----|--------7----------5h-7--|--5--5--5----5--5--5----|
--0--0--0----0--0--0----|--0--0--0----5h-7--------|------------------------|


                                                               
----------------------|-------------------|-------------------|
-----------------7r---|-------------------|-------------------|
--7-------------------|--9----------------|--------------9----|
--5--7------9---------|--9----------------|--------------9----|
-----5------7---------|--7----------------|--------------7----|
----------------------|-------------------|-------------------|


                                                           
-------------------|------------------|-------------------|
-------------------|------------------|-------------------|
--7----------------|------------------|--9----------------|
--7----------------|------------------|--9----------------|
--5----------------|------------------|--7----------------|
-------------------|------------------|-------------------|


                                                                  
--------------------------|-------------------|------------------|
--------------------------|-------------------|------------------|
--------------------------|--7----------------|------------------|
--------------------------|--7----------------|------------------|
----------5h7p5h7p5h7p5h7-|--5----------------|------------------|
--------------------------|-------------------|------------------|


                                                                            
------------------------|-------------------------|------------------------|
------------------------|-------------------------|------------------------|
--------9----------9----|--------9----------------|--------7----------7----|
--------9----------9----|--------9----------------|--------7----------7----|
--------7----------7----|--------7----------5h-7--|--5--5--5----5--5--5----|
--0--0--0----0--0--0----|--0--0--0----5h-7--------|------------------------|


                                                                           
-----------------------|------------------------|-------------------------|
-----------------12b---|------------------------|-------------------------|
--7--------------------|--------9----------9----|--------9----------------|
--5--7------9----------|--------9----------9----|--------9----------------|
-----5------7----------|--------7----------7----|--------7----------5h-7--|
-----------------------|--0--0--0----0--0--0----|--0--0--0----5h-7--------|


                                                                         
------------------------|----------------------|------------------------|
------------------------|----------------------|------------------------|
--------7----------7----|--7-------------------|--------9----------9----|
--------7----------7----|--5--7------9---------|--------9----------9----|
--5--5--5----5--5--5----|-----5------7----7\---|--------7----------7----|
------------------------|----------------------|--0--0--0----0--0--0----|


                                                                             
-------------------------|------------------------|-------------------------|
-------------------------|------------------------|-----------------7h8p7h8-|
--------9----------------|--------7----------7----|--7----------------------|
--------9----------------|--------7----------7----|--5--7------9------------|
--------7----------5h-7--|--5--5--5----5--5--5----|-----5------7------------|
--0--0--0----5h-7--------|------------------------|-------------------------|


                                                                            
------------------------|-------------------------|------------------------|
------------------------|-------------------------|------------------------|
--------9----------9----|--------9----------------|--------7----------7----|
--------9----------9----|--------9----------------|--------7----------7----|
--------7----------7----|--------7----------5h-7--|--5--5--5----5--5--5----|
--0--0--0----0--0--0----|--0--0--0----5h-7--------|------------------------|


                                                                         
---------------------|--------12-------12-------12-------12-------12----|
---------------------|-----12-------12-------12-------12-------12-------|
--7------------------|--14b------14b------14b------14b------14b------14b|
--5--7------9--------|--------------------------------------------------|
-----5------7--------|--------------------------------------------------|
---------------------|--------------------------------------------------|


                                                   
-----12-------12-------------------13----------14-|
--12-------12-------12-15-12----13----16-13-------|
--------14b------14----------15-------------16----|
--------------------------------------------------|
--------------------------------------------------|
--------------------------------------------------|


                                   
--------------15----------12--14--|
--17-14----15-----17--------------|
--------17------------------------|
----------------------------------|
----------------------------------|
----------------------------------|


                                                   
--16-12-16-16-15-14-12-14-15-14-12-14-15-14-17-14-|
--------------------------------------------------|
--------------------------------------------------|
--------------------------------------------------|
--------------------------------------------------|
--------------------------------------------------|


                                                   
--15-14-12-14-15p14-17p14/15-------22-18h19p18-20-|
-----------------------------15h18----------------|
--------------------------------------------------|
--------------------------------------------------|
--------------------------------------------------|
--------------------------------------------------|


                                                   
--18----------------------------------------------|
-----20-18h19p18----18----------------------------|
-----------------20----20-18----18----------------|
-----------------------------20----20-18----18----|
-----------------------------------------21----21-|
--------------------------------------------------|


                                                                      
--------------------------------|------------------------------------|
--------------------------------|------------------16b-0----12----15-|
-----2b-4p-2--10t2--9t2-0-2-0-2-|--14-17p14-----12-15b-0-12----12----|
--------------------------------|------------------------------------|
--20\---------------------------|------------------------------------|
--------------------------------|------------------------------------|


                                                   
--12-15-12-14-12-15-12----------------------------|
-----------------------15-12-12-13-12----12-------|
--------------------------------------15----13-11-|
--------------------------------------------------|
--------------------------------------------------|
--------------------------------------------------|


                                                                              
-------------------------------------------|---------------------------------|
-------------------------------------------|----------------7-8-10-10b-------|
-----11------------------------------------|----4-5-7-6-7-9------------------|
--14----14-11-12-11-14-11-14-16--------4-5-|--7------------------------------|
---------------------------------4-5-7-----|---------------------------------|
-------------------------------------------|----------------------------12\--|


                                                                            
------------------------|-------------------------|------------------------|
------------------------|-------------------------|------------------------|
--------9----------9----|--------9----------------|--------7----------7----|
--------9----------9----|--------9----------------|--------7----------7----|
--------7----------7----|--------7----------5h-7--|--5--5--5----5--5--5----|
--0--0--0----0--0--0----|--0--0--0----5h-7--------|------------------------|


                                                                          
----------------------|------------------------|-------------------------|
-----------------7----|------------------------|-------------------------|
--7-------------------|--------9----------9----|--------9----------------|
--5--7------9---------|--------9----------9----|--------9----------------|
-----5------7---------|--------7----------7----|--------7----------5h-7--|
----------------------|--0--0--0----0--0--0----|--0--0--0----5h-7--------|


                                                                        
------------------------|---------------------|------------------------|
------------------------|---------------------|------------------------|
--------7----------7----|--7------------------|--------9----------9----|
--------7----------7----|--5--7------9--------|--------9----------9----|
--5--5--5----5--5--5----|-----5------7--------|--------7----------7----|
------------------------|---------------------|--0--0--0----0--0--0----|


                                                                             
-------------------------|------------------------|-------------------------|
-------------------------|------------------------|-----------------7h8p7h8-|
--------9----------------|--------7----------7----|--7----------------------|
--------9----------------|--------7----------7----|--5--7------9------------|
--------7----------5h-7--|--5--5--5----5--5--5----|-----5------7------------|
--0--0--0----5h-7--------|------------------------|-------------------------|


                                                                            
------------------------|-------------------------|------------------------|
------------------------|-------------------------|------------------------|
--------9----------9----|--------9----------------|--------7----------7----|
--------9----------9----|--------9----------------|--------7----------7----|
--------7----------7----|--------7----------5h-7--|--5--5--5----5--5--5----|
--0--0--0----0--0--0----|--0--0--0----5h-7--------|------------------------|


                                                                 
---------------------|-------------------|----------------------|
---------------------|-------------------|----------------------|
--7------------------|--9----------------|----------------------|
--5--7------9--------|--9----------------|--10--------12--------|
-----5------7--------|--7----------------|--10--------12--------|
---------------------|-------------------|--8---------10--------|


                                                                     
-------12----12----12----|-------------------|----------------------|
-------------------------|-------------------|----------------------|
--9----------------------|--9----------------|----------------------|
--9----------------------|--9----------------|--10--------12--------|
--7----------------------|--7----------------|--10--------12--------|
-------------------------|-------------------|--8---------10--------|


                                                                         
---------------------|------------------------|-------------------------|
---------------------|------------------------|-------------------------|
--9------------------|--------9----------9----|--------9----------------|
--9------------------|--------9----------9----|--------9----------------|
--7--------19b-------|--------7----------7----|--------7----------5h-7--|
---------------------|--0--0--0----0--0--0----|--0--0--0----5h-7--------|


                                                                         
------------------------|----------------------|------------------------|
------------------------|-----------------7r---|------------------------|
--------7----------7----|--7-------------------|--------9----------9----|
--------7----------7----|--5--7------9---------|--------9----------9----|
--5--5--5----5--5--5----|-----5------7---------|--------7----------7----|
------------------------|----------------------|--0--0--0----0--0--0----|


                                                                           
-------------------------|------------------------|-----------------------|
-------------------------|------------------------|-----------------7h8---|
--------9----------------|--------7----------7----|--7--------------------|
--------9----------------|--------7----------7----|--5--7------9----------|
--------7----------5h-7--|--5--5--5----5--5--5----|-----5------7----------|
--0--0--0----5h-7--------|------------------------|-----------------------|


                                                                            
------------------------|-------------------------|------------------------|
------------------------|-------------------------|------------------------|
--------9----------9----|--------9----------------|--------7----------7----|
--------9----------9----|--------9----------------|--------7----------7----|
--------7----------7----|--------7----------5h-7--|--5--5--5----5--5--5----|
--0--0--0----0--0--0----|--0--0--0----5h-7--------|------------------------|


                                                                            
---------------------|---------------------------|-------------------------|
---------------------|---------------------------|-------------------------|
--7------------------|--------9-----------9p-8p7-|--------7----------------|
--5--7------9--------|--------9p-8--------9p-8p7-|--------7----------------|
-----5------7--------|--------7-----------7------|--------7----------5h-7--|
---------------------|--0--0--0-----0--0--0------|--0--0--0----5h-7--------|


                                                
------------------------|---------------------||
------------------------|---------------------||
--------7----------7----|--7---------9--------||
--------7----------7----|--5--7------9--------||
--5--5--5----5--5--5----|-----5------7--------||
------------------------|------------0--------||
Composição de Bill Ward / Geezer Butler / Ozzy Osbourne / Terence Butler / Tony Iommi
81.173 exibições
    • ½ Tom
    • A
    • Bb
    • B
    • C
    • Db
    • D
    • Eb
    • E
    • F
    • F#
    • G
    • Ab
  • Adicionar à lista

    0 comentários

    Ver todos os comentários
    00:00 / 00:00
    outros vídeos desta música
    repetir qualidade Automático
    Outros vídeos desta música
    00:00 / 00:00
    Automático

    Cifra Club Pro

    Aproveite o Cifra Club com benefícios exclusivos e sem anúncios
    Cifra Club Pro
    Aproveite o Cifra Club com benefícios exclusivos e sem anúncios
    OK