Cifra Club

Aprenda

Deus é Deus

Padre Marcelo Rossi

Cifra: Principal (violão e guitarra)
Quer fazer aulas de música com a gente? Responda essas perguntas
e nos ajude nesse projeto! →
tom: Bm
[Intro] D  A4/C#  Bm7  A  G  D/F#  Em7

E|---------------------------9----------------------------|
B|-------10-------10------7-----------3-------------------|
G|---------------------------9--2---------2--------2------|
D|-11/12-----9/11-----7/9---------4h5---5---2h4--4---5----|
A|--------------------------------------------------------|
E|--------------------------------------------------------|

       D       A4/C#     Bm7       A
E|-------------------------------------------|
B|-3---3----3---3----3---3----2---2----------|
G|-2---2----2---2----2---2----2---2----------|
D|---4---4----2---2----4---4----2---2--------|
A|-5--------4--------2-----------------------|
E|----------------------------5--------------|

       G       D/F#      Em7
E|---------------------------10--------------|
B|-3---3----3---3----8---7h8-----------------|
G|-4---4----2---4----7-----------------------|
D|---5---5----4---4----9---------------------|
A|-------------------7-----------------------|
E|-3--------2--------------------------------|

       D9             A/C#
Minha fé não está firmada
            Bm7            A/C#
Nas coisas que podes fazer
         D9         G           A4  A
Eu aprendi a Te adorar pelo que és
      Em7   G/D     A/C#
Dele vêm o sim e o amém
         D9     A/C#      Bm7
Somente dele e mais ninguém
A  G        A4    G
A Deus seja o louvor

[Parte 1 de 4]

       D9      A/C#      Bm7          A/C#
E|------------------------------------------|
B|-5---5----5---5----3---3---3----5---------|
G|-2---2----2---2----2---2---2----2---------|
D|---4---4----2---2----4---4---4----2-------|
A|-5--------4--------2------------4---------|
E|------------------------------------------|

[Parte 2 de 4]

       D9       G        A4       A
E|------------------------------------------|
B|-5---5----3---3----3---3----2---2---------|
G|-2---2----4---4----2---2----2---2---------|
D|---4---4----5---5----2---2----2---2-------|
A|-5----------------------------------------|
E|----------3--------5--------5-------------|

[Parte 3 de 4]

      Em7  G/D   A/C#      D9  A/C#  Bm7  A
E|-3----3-----------------------------------|
B|-3----3----5---5----5----5----3---2-------|
G|---4----4--2---2----2----2----2---2-------|
D|-2-----------2---2----4----2----4---2-----|
A|------5----4--------5----4----2-----------|
E|----------------------------------5-------|

[Parte 4 de 4]

       G       A4        G
E|-------------------3--10----------------------|
B|-3---3----3---3----3--10h12p10--10------------|
G|-4---4----2---2----4------------9-h11p9-------|
D|---5---5----2---2--5--------------------------|
A|-------------------5--------------------------|
E|-3--------5--------3--------------------------|

[Refrão]

           D9         A/C#
Se Deus fizer, Ele é Deus
          Bm7        A
Se não fizer, Ele é Deus
              G          D/F#
Se a porta abrir, Ele é Deus
           Em7                 A
Mas se fechar, continua sendo Deus

             D9          A/C#
Se a doença vier, Ele é Deus
              Bm7        A
Se curado eu for, Ele é Deus
             G            D/F#
Se tudo der certo, Ele é Deus
            Em7                 A
Mas se não der, continua sendo Deus

E|----10----10----------------------------------------------|
B|----10h12-10-------10----10-2-----------------------------|
G|-12----------12/11-9-h11-9--------------------------------|
D|----------------------------------------------------------|
A|----------------------------------------------------------|
E|----------------------------------------------------------|

[Segunda Parte]

        G                 D/F#
Não o adoro pelo que Ele faz
       Em7              Bm7
Eu o adoro pelo que Ele é
               A
Haja o que houver
 G      A    D   D7
Sempre será Deus

        G                 D/F#
Não o adoro pelo que Ele faz
       Em7              Bm7
Eu o adoro pelo que Ele é
               A
Haja o que houver
 G      A    D
Sempre será Deus

[Refrão]

           D9         A/C#
Se Deus fizer, Ele é Deus
          Bm7        A
Se não fizer, Ele é Deus
              G          D/F#
Se a porta abrir, Ele é Deus
           Em7                 A
Mas se fechar, continua sendo Deus

             D9          A/C#
Se a doença vier, Ele é Deus
      A#º     Bm7  E7/G#        Am7
Se curado eu for,        Ele é Deus
    D/F#      G            D/F#
Se tudo der certo, Ele é Deus
            Em7                 A
Mas se não der, continua sendo Deus

[Final]

 G
Deus é Deus
 Bm7
Deus é Deus
 G          A
Deus é Deus

 G
Deus é Deus
 Bm7
Deus é Deus
 G          A4
Deus é Deus
Composição de Delino Marcal
Colaboração e revisão:
  • junior antoneli
1.963 exibições
    • ½ Tom
    • Am
    • Bbm
    • Bm
    • Cm
    • C#m
    • Dm
    • Ebm
    • Em
    • Fm
    • F#m
    • Gm
    • G#m
  • Adicionar à lista

    0 comentários

    Ver todos os comentários
    00:00 / 00:00
    Outros vídeos desta música
    Repetir Qualidade Automático
    Outros vídeos desta música
    00:00 / 00:00
    Automático

    Cifra Club Pro

    Aproveite o Cifra Club com benefícios exclusivos e sem anúncios
    Cifra Club Pro
    Aproveite o Cifra Club com benefícios exclusivos e sem anúncios
    OK