Cifra Club

Aprenda

Utopia

Padre Zezinho

Cifra: Principal (violão e guitarra)
tom: F
[Intro] F  Gm  C  F  Dm  Gm  C  F

E|---3-4-5--3-----6-5---------3-4-5---3-----------|
B|-6--------------------6---6-----~------5--6-----|
G|------------------------------------------------|
D|------------------------------------------------|
A|------------------------------------------------|
E|------------------------------------------------|

            F             C         F
Das muitas coisas do meu tempo de criança
        C           F            F7          Gm  C7
Guardo vivo na lembrança o aconchego do meu lar
           Gm          C7           Gm
No fim da tarde quando tudo se aquietava
     C7        Gm             C7             F  C7
A família se ajuntava lá no alpendre a conversar
               F            C             F
Meus pais não tinham nem escola e nem dinheiro
        C           F           F7          Bb
Todo o dia o ano inteiro trabalhavam sem parar
         Bb                      Am         Dm          Gm
Faltava tudo mas a gente nem ligava o importante não faltava
        C7           F   C7
Seu sorriso e seu olhar

[Solo] F  Gm  C  F  Dm  Gm  C  F
       F  Gm  C  F  Dm  Gm  C  F

E|---3-4-5--3-----6-5---------3-4-5---3-----------|
B|-6--------------------6---6-----~------5--6-----|
G|------------------------------------------------|
D|------------------------------------------------|
A|------------------------------------------------|
E|------------------------------------------------|

E|---3-4-5--3-----6-5---------3-4-5---3-----------|
B|-6--------------------6---6-----~------5--6-----|
G|------------------------------------------------|
D|------------------------------------------------|
A|------------------------------------------------|
E|------------------------------------------------|

           F            C             F
Eu tantas vezes vi meu pai chegar cansado
       C           F          F7         Gm  C7
Mas aquilo era sagrado um por um ele afagava
         Gm         C7           Gm
E perguntava quem fizera estripolia
     C7           Gm             C7         F    C7
E mamãe nos defendia e tudo aos poucos se ajeitava
          F         C               F
O sol se punha, a viola alguém trazia
      C             F           F7               Bb   Bbm
Todo mundo então pedia ver o papai cantar com a gente
       Bb                      Am
Desafinado meio rouco voz cansada
        Dm       Gm          C7              F     C7
Ele cantava mil toadas, em seu olhar no sol poente

[Solo] F  Gm  C  F  Dm  Gm  C  F
       F  Gm  C  F  Dm  Gm  C  F

E|---3-4-5--3-----6-5---------3-4-5---3-----------|
B|-6--------------------6---6-----~------5--6-----|
G|------------------------------------------------|
D|------------------------------------------------|
A|------------------------------------------------|
E|------------------------------------------------|

E|---3-4-5--3-----6-5---------3-4-5---3-----------|
B|-6--------------------6---6-----~------5--6-----|
G|------------------------------------------------|
D|------------------------------------------------|
A|------------------------------------------------|
E|------------------------------------------------|

          F               C          F
Correu o tempo e hoje eu vejo a maravilha
       C         F            F7           Gm  C7
De se ter uma família quando tantos não a têm
       Gm           C7        Gm
Agora falam do desquite do divórcio
    C7           Gm           C7           F  C7
O amor virou consórcio compromisso de ninguém
           F              C             F
Há tantos filhos que bem mais que um palácio
      C            F           F7            Bb   Bbm
Gostariam de um abraço e do carinho de seus pais
             Bb                     Am
Se os pais amassem o divórcio não viria
       Dm     Gm
Chamam a isso Utopia
     C7          F
Eu a isso chamo paz
Composição de Pe. Zezinho
528.151 exibições
    • ½ Tom
    • A
    • Bb
    • B
    • C
    • Db
    • D
    • Eb
    • E
    • F
    • F#
    • G
    • Ab
  • Adicionar à lista

    0 comentários

    Ver todos os comentários
    00:00 / 00:00
    Outros vídeos desta música
    Repetir Qualidade Automático
    Outros vídeos desta música
    00:00 / 00:00
    Automático

    Cifra Club Pro

    Aproveite o Cifra Club com benefícios exclusivos e sem anúncios
    Cifra Club Pro
    Aproveite o Cifra Club com benefícios exclusivos e sem anúncios
    OK