Cifra Club

Epifania

Palankin

Cifra: Principal (violão e guitarra)
tom: G
[Riff 1]

E|-------------------------------------------------|
B|-------------------------------------------------|
G|-------------------------------------------------|
D|-------------------------------------------------|
A|--2--0-2/5----2--0-2/5---------------------------|
E|-------------------------------------------------|

      B5  A5  B5   D5              B5
Meu Jesus eu  Te   considero tudo
A5    B5   D5              B5    A5  B5   D5
En...tão   conto tudo como per.......da         

  Bm                               A/C#
Achei o tesouro escondido que procurava
                          G
Irei embora, venderei tudo, para possuí-lo!

[Riff 2]

E|---------------------------------------------------------|
B|------------------------------------------------7p5-3----|
G|-------------------------------------------------------4-|
D|---------------------------------------------------------|
A|--2--0-2/5----2--0-2/5----2--0-2/5----2--0-2/5-----------|
E|---------------------------------------------------------|

Meu Jesus eu Te considero tudo
Então conto tudo como perda  

[Riff 3]

E|---------------------------------------------------------|
B|---------------------------------------------------------|
G|---------------------------------------------------------|
D|---------------------------------------------------------|
A|--2-2--2-5-2-2--2-2-5------------------------------------|
E|----------------------2-2--2-5-2-2--2-2-5----------------|

E|---------------------------------------------------------|
B|---------------------------------------------------------|
G|---------------------------------------------------------|
D|---------4----------5-5-4---------4----------5-5-4-------|
A|---------------------------------------------------------|
E|--3-3--3---3-3--3-3--------3-3--3---3-3--3-3-------------|

D                             F#
Pai, estou me apegando em Seu Filho!
                            G
Estou me agarrando em Sua Palavra!
                    Em
Estou caçando o Seu coração!

[Riff 4]

E|---------------------------------------------------------|
B|---------------------------------------------------------|
G|---------------------------------------------------------| (2x)
D|---------------------------------------------------------|
A|----8/7-5-7-5----------8/7-5-7-5-------------------------|
E|--7-----------7-5-7--7-----------7---0--2-5--------------|

[Riff 5]

E|---------------------------------------------------------|
B|---------------------------------------------------------|
G|---------------------------------------------------------|
D|---------------------------------------------------------|
A|----8/7-5-7-5----------8/7-5-7-5-------------------------|
E|--7-----------7-5-7--7-----------7-----------------------|

Bm
Ele vale mais que ouro!
D
Ele vale mais que ouro!
Em                      G
Ele vale mais que ouro! Mais!

D                             F#
Pai, estou me apegando em Seu filho!
                            G
Estou me agarrando em Sua palavra!
                    Em
Estou caçando o Seu coração!

Bm                            F#
Pai, estou me apegando em Seu filho!
                            G
Estou me agarrando em Sua palavra!
                    Em
Estou caçando o Seu coração!
00:00 / 00:00
Outros vídeos desta música
Repetir
Outros vídeos desta música
Compositor não encontrado.
Colaboração e revisão:
29.024 exibições
    • ½ Tom
    • A
    • Bb
    • B
    • C
    • Db
    • D
    • Eb
    • E
    • F
    • F#
    • G
    • Ab
  • Adicionar à lista

    0 comentários

    Ver todos os comentários

    Entre para oCifra Club PRO

    Tenha acesso a benefícios exclusivos no App e no Site

    • Chega de anúncios

    • Prioridade de compra em lançamentos

    • Mais recursos no app do Afinador

    • Atendimento Prioritário

    • Descontos nos produtos Cifra Club

    • Ajude a produzir mais conteúdo

    00:00 / 00:00

    Cifra Club Pro

    Aproveite o Cifra Club com benefícios exclusivos e sem anúncios
    Cifra Club Pro
    Aproveite o Cifra Club com benefícios exclusivos e sem anúncios
    OK