Cifra Club

Lobos

Palankin

Cifra: Principal (violão e guitarra)
tom: Eb (forma dos acordes no tom de C) Capotraste na 3ª casa
[Intro] Am  C  Am  C

[Primeira Parte]

Am                      C  
Quando exatamente foi que a nossa casa tornou-se
Am                           C
Tão grande que mal dava pra correr em volta da mesa?
Am
Anos se passam
C 
Estranhos se infiltram

[Segunda Parte]

Am                        C
Mas em algum cômodo ainda ouço a sua voz!
F7M
Em meio a pirofagia
Dm
Talheres caros, roupas finas
C                         E
Eu procuro por pistas e o Espírito me diz

[Refrão]

F7M
Está tudo bem pra você?
G
Tudo bem pra você?
Am                         C
Tudo bem pra você me perder?

[Primeira Parte]

Am                      C
Quando exatamente foi que a nossa casa tornou-se
Am                           C
Tão grande que mal dava pra correr em volta da mesa?

[Segunda Parte]

Am                C
Anos se passam, a estrutura sufoca
Am                         C
Mas em algum cômodo ainda ouço a sua voz!
F7M
Em meio ao business
Dm
Neros e Pilatos
C                         E
Eu procuro por pistas e o EspÍrito me diz

[Refrão]

F7M                                        G
    Está tudo bem pra você?Tudo bem pra você?
Am                         C
Tudo bem pra você me perder?´´
F7M                                        G 
    Está tudo bem pra você?Tudo bem pra você?
Am                         C
Tudo bem pra você me perder?´´

( Am  Em  C )
( Am  Em  C )

[Solo]

Parte 1 De 4
E|--------------------------------------------|
B|--------------------------------------------|
G|-----------------------------1--2-----------|
D|-----------------------1--2-----------------|
A|--0--0--0--3--0--0--0-----------------------|
E|--------------------------------------------|

Parte 2 De 4
E|--------------------------------------------|
B|--------------------------------------------|
G|--------------------------------------------|
D|----------------------1--2------------------|
A|--0--0--0--3--0--0--0------3----------------|
E|--------------------------------------------|

Parte 3 De 4
E|--------------------------------------------|
B|--------------------------------------------|
G|-----------------------------1--2-----------|
D|-----------------------1--2-----------------|
A|--0--0--0--3--0--0--0-----------------------|
E|--------------------------------------------|

Parte 4 De 4
E|--------------------------------------------|
B|--------------------------------------------|
G|--------------------------------------------|
D|--------------------------------------------|
A|--0--0--0--3--0--0--0--------2--------------|
E|-----------------------3--2-----------------|

[Refrão 2]

C
Até onde você iria?
Dm
Qual preço que pagaria?
C
Esse Espírito me intriga
B7M(5-)
Esse Espírito instiga
C
Até onde você iria?
Dm
Qual preço que pagaria?
C
Esse Espírito me intriga
B7M(5-)
Esse Espírito instiga
[Ultima parte]
C
Tudo bem pra você?
G 
Tudo bem pra você?
Am                        C
Tudo bem pra você me perder?
F7M
Tudo bem?
Não,não, não
G
Não está tudo bem, não, não
Am
Não está tudo bem, Senhor
C
Sem você
00:00 / 00:00
Outros vídeos desta música
Repetir
Outros vídeos desta música
Composição de Ana Rock
Colaboração e revisão:
  • Caio Taylor
129 exibições
    • ½ Tom
    • A
    • Bb
    • B
    • C
    • Db
    • D
    • Eb
    • E
    • F
    • F#
    • G
    • Ab
  • Adicionar à lista

    0 comentários

    Ver todos os comentários

    Entre para oCifra Club PRO

    Tenha acesso a benefícios exclusivos no App e no Site

    • Chega de anúncios

    • Prioridade de compra em lançamentos

    • Mais recursos no app do Afinador

    • Atendimento Prioritário

    • Descontos nos produtos Cifra Club

    • Ajude a produzir mais conteúdo

    00:00 / 00:00

    Cifra Club Pro

    Aproveite o Cifra Club com benefícios exclusivos e sem anúncios
    Cifra Club Pro
    Aproveite o Cifra Club com benefícios exclusivos e sem anúncios
    OK