Cifra Club

Pulsante

Palankin

Cifra: Principal (violão e guitarra)
tom: E
[Intro]

E|--12p9-----------------12p9----------------------------------------|
B|-------12-9-12-9------------12-9-12-9------------------------------|
G|-----------------11-9-----------------11-9-9--9/13--13/14--14\13---|  (2x)
D|-------------------------------------------------------------------|
A|-------------------------------------------------------------------|
E|-------------------------------------------------------------------|

Riff I 
E|--12p9-------------------12p9------------------|
B|-------12-9-12-9--------------12-9-12-9--------|
G|-----------------11-9-------------------11-9---|  (6x)
D|-----------------------------------------------|
A|-----------------------------------------------|
E|-----------------------------------------------|

  C#m                                          E
Jesus seja o centro da minha vida do início ao fim
    C#m                              E
Toca-me com brasas do altar, consuma-me
          C#m                                        E
Como um incenso, libere o seu fogo e vou queimar sem fim

       E
Quebra-me como um vaso de alabastro 
        B                          C#m
E no final eu estarei prostrado aos Teus pés
         A                  E    B
Lavando Teus pés, beijando Teus pés

        E
Hipnotizante; você me deixou sem ar
     B                                  C#m
Alucinante; eu não consigo parar de te amar
                 A                     E       B
Como não me entregar? Como não me apaixonar?

Riff II
E|--12p9-------------------12p9--------------------16-14----14-------16-14----14-----------12p9-----------------|
B|-------12-9-12-9--------------12-9-12-9----------------17----17----------17----17-------------12-9-12-9-------|
G|-----------------11-9-------------------11-9------------------------------------------------------------11-9--|
D|--------------------------------------------------------------------------------------------------------------|
A|--------------------------------------------------------------------------------------------------------------|
E|--------------------------------------------------------------------------------------------------------------|

  C#m                                          E
Jesus seja o centro da minha vida do início ao fim
    C#m                              E
Toca-me com brasas do altar, consuma-me
          C#m                                        E
Como um incenso, libere o seu fogo e vou queimar sem fim

       E
Quebra-me como um vaso de alabastro 
        B                          C#m
E no final eu estarei prostrado aos Teus pés
         A                  E    B
lavando Teus pés, beijando Teus pés

        E
Hipnotizante; você me deixou sem ar
     B                                  C#m
Alucinante; eu não consigo parar de te amar
                 A                     E       B
Como não me entregar? Como não me apaixonar?

( E  B  C#m  A )
 
E                     B
Pulsante, irradiante, brilhante
           C#m
Você é tão lindo
            A
Você é tão lindo
00:00 / 00:00
Outros vídeos desta música
Repetir
Outros vídeos desta música
Composição de Ana Rock
Colaboração e revisão:
  • Henrique Izaquiel
  • Felipe Graciano
  • Niv Jr.
118.682 exibições
    • ½ Tom
    • A
    • Bb
    • B
    • C
    • Db
    • D
    • Eb
    • E
    • F
    • F#
    • G
    • Ab
  • Adicionar à lista

    0 comentários

    Ver todos os comentários

    Entre para oCifra Club PRO

    Tenha acesso a benefícios exclusivos no App e no Site

    • Chega de anúncios

    • Prioridade de compra em lançamentos

    • Mais recursos no app do Afinador

    • Atendimento Prioritário

    • Descontos nos produtos Cifra Club

    • Ajude a produzir mais conteúdo

    00:00 / 00:00

    Cifra Club Pro

    Aproveite o Cifra Club com benefícios exclusivos e sem anúncios
    Cifra Club Pro
    Aproveite o Cifra Club com benefícios exclusivos e sem anúncios
    OK