Cifra Club

Aprenda

Branca

Palavrantiga

Cifra: Principal (violão e guitarra)
tom: Db
Intro: 2x

    Gm7                                Cm7
E|------------------|---------------|------------------|-----------------|
B|------------------|---------------|-4--4-----4--4----|--4--4-----4--4--|
G|-3--3----3--3-----|-3--3-----3--3-|-3--3-----3--3----|--3--3-----3--3--|
D|-3--3----3--3-----|-3--3-----3--3-|------------------|-----------------|
A|------------------|---------------|-3-----3--3-----3-|--3-----3--3--3--|
E|-3----3--3-----3--|-3--3--3--3--3-|------------------|-----------------|

    Ebm7                                Ab
E|------------------|----------------|------------------|----------------|
B|-7--7-----7--7----|-7--7-----7--7--|-4--4-----4--4----|-4--4-----4--4--|
G|-6--6-----6--6----|-6--6-----6--6--|-5--5-----5--5----|-5--5-----5--5--|
D|------------------|----------------|-6--6-----6--6----|-6--6-----6--6--|
A|-6-----6--6-----6-|-6-----6--6--6--|------------------|----------------|
E|------------------|----------------|-4-----4--4-----4-|-4-----4--4-----|

Gm                Cm7
Branca, acordei você?
              Ebm7               Ab
Nunca mais dormi nem to querendo mais
                F       Gb°
Eu to querendo te olhar

Gm                                         Cm7
Branca, a pele tão branca não esconde a pureza da alma
                        Ebm7
É claro, só mostra essa força que salta
                            Ab
Que inspira a gente a caminhar

Cm      Bb          Ab
Branca, eis a tua maneira, maneira de andar
    F
Correndo, criando, lutando essa guerra
     Bb   C  Bb
Sem tempo a prender  (x2)

Dm7
Espere um pouco, Branca
Não, me espera, Branca
Espere um pouco
Não, espera Branca

( Gm  Cm7  Ebm7  Ab )

Gm                Cm7
Branca, acordei você?
             Ebm7                 Ab
Nunca mais dormi nem to querendo mais
                  F     Gb°
Eu to querendo te olhar

Gm                                         Cm7
Branca, a pele tão branca não esconde a pureza da alma
                        Ebm7
É claro, só mostra essa força que salta
                        Ab
Que inspira a gente a caminhar

Cm     Bb            Ab
Branca é a nossa bandeira, bandeira da paz
   F                          Bb    C  Bb
E negro é o teu cabelo, que insiste em prender (x2)

Dm7
Solte o cabelo, Branca
Não, solta o cabelo
Solte o teu cabelo, Branca

Dm7     Dm7
Branca, Branca
Composição de Marcos Almeida
Colaboração e revisão:
  • Eduardo Carvalho
  • Vanderlei Mendes
  • Lucas
43.306 exibições
    • ½ Tom
    • A
    • Bb
    • B
    • C
    • Db
    • D
    • Eb
    • E
    • F
    • F#
    • G
    • Ab
  • Adicionar à lista

    0 comentários

    Ver todos os comentários

    Conseguiu tocar?

    5 Tocaram 1 Ainda não

    Grave um vídeo tocando Branca e nos envie!

    00:00 / 00:00
    Outros vídeos desta música
    Repetir Qualidade Automático
    Outros vídeos desta música
    00:00 / 00:00
    Automático

    Cifra Club Pro

    Aproveite o Cifra Club com benefícios exclusivos e sem anúncios
    Cifra Club Pro
    Aproveite o Cifra Club com benefícios exclusivos e sem anúncios
    OK