Cifra Club

Aprenda

De Manhã

Palavrantiga

Cifra: Principal (violão e guitarra)
tom: F
Intro:

          F     Bb                  F         Bb
E|------------------------------------------------------|
B|------------------------------------------------------|
G|------------------------------------------------------|
D|-----------------3------------------------------------| 2x
A|-----------3-3h5---5-3-5h3p0------------3-------------|
E|---1-x-3-5----------------------1-x-3-5---5/6~-6-6----| 

(o riff é tocado na introdução e durante a I parte com algumas variações)

Parte I:

F    Bb9          F   Bb9    F
De manhã eu canto uma nova canção
     Bb9        F        Bb
Pra você, amigo, do meu jeito
F       Bb9        F     Bb9
Pois estou certo de que me ouvirá
F     Bb9      F         Bb9  C9
Pois você jurou que estaria  perto
Gm         C9
Perto de mim    

      Bb        Gm11   C   Am
E|-------------------------------------|
B|-------------------------------------|
G|-------------------------------------|
D|--3-3--5-5/7--3-3-5--5/7--3-3-2-2----|
A|------------5---------------------3--|
E|----------------------------------5--|

Parte II:

  Bb9  Gm11       C   Am
E eu         vou cantando
  Bb9   Gm11      C    Am
e Deus       me abraçando, vai (2x)

   Gm
Distante daquilo que eu era
    C9
Sem força nem fé ou poesia
     Gm             Bb                         C9
Me encosto no peito daquele que atende o meu grito
           Gm
A ele todo canto

(Repete Tudo)

      C9
Canto perto de ti ...

Final:

       F       Bb                    F       Bb         F
E|-----------------------------------------------------------|
B|-----------------------------------------------------------|
G|-----------------------------------------------------------|
D|-----------------3-----------------------------------------|
A|-----------3-3h5---5-3-5p3h0-------------3-1-0-------------|
E|---1-x-3-5-----------------------1-x-0-1-------3-1-0-1~----|
Composição de Marcos Almeida
75.192 exibições
    • ½ Tom
    • A
    • Bb
    • B
    • C
    • Db
    • D
    • Eb
    • E
    • F
    • F#
    • G
    • Ab
  • Adicionar à lista

    0 comentários

    Ver todos os comentários

    Conseguiu tocar?

    9 Tocaram 4 Ainda não

    Grave um vídeo tocando De Manhã e nos envie!

    00:00 / 00:00
    Outros vídeos desta música
    Repetir Qualidade Automático
    Outros vídeos desta música
    00:00 / 00:00
    Automático

    Cifra Club Pro

    Aproveite o Cifra Club com benefícios exclusivos e sem anúncios
    Cifra Club Pro
    Aproveite o Cifra Club com benefícios exclusivos e sem anúncios
    OK