Cifra Club

Aprenda

Partiu

Palavrantiga

Cifra: Principal (violão e guitarra)
tom: G
Intro:

 Riff1:    G                                  Bm
       E|----------------------------------------------------------------------|
       B|----------------------------------------------------------------------|
       G|------------------------------------4--4--4--4--4/7--4--4--4--4--4/7--|     (2 X)
       D|--5--5--5--5--5/7--5--5--5--5--5/7------------------------------------|
       A|------------------------------------2--2--2--2--2/5--2--2--2--2--2/5--|
       E|--3--3--3--3--3/5--3--3--3--3--3/5------------------------------------|

Versos 1:

 G    Bm             G   Bm
Não, não tem como fugir não
                       C
Põe na história o seu dom

Vai, é a hora de ir

Intro

Versos 2:

 G                    Bm
Tua fé abriu um caminho bom
 G                   Bm
Siga agora o teu sonho, vai
 C               Em                    Am
Se essa é a sua dor, põe sobre ela sorte
             C                     D
Todo o teu amor que você lhe escondeu, vai


            Am                C                    Em             G
Riff2: E|-----------------------------------------------------------------------|
       B|--8--8--5--8--8--5--8--8--8--5--8--5--8--------------7--------------7--|
       G|-----------------------------------------------7--9-----------7--9-----|
       D|-----------------------------------------7--9-----------7--9-----------|
       A|-----------------------------------------------------------------------|
       E|-----------------------------------------------------------------------|

Refrão:

Riff2
 Am  C   Em    G
Partiu, foi embora
 Am   C   Em    G
Sem mais desculpas

Se libertou
   Am  C   Em      G
E partiu, foi pra rua
 Am   C   Em    G
Sem mais desculpas
                    C
Um mundo inteiro ouviu você

Tão perto o amor sincero

Solo:
         Am                   Em                   C                    G
    E|--5--5--5--5--5--5--5--7--7--7--7--7--7--7--8--8--8--8--8--8--8--10--10--10--10--10--10--10--|
    B|---------------------------------------------------------------------------------------------|
    G|---------------------------------------------------------------------------------------------|   (2 X)
    D|---------------------------------------------------------------------------------------------|
    A|---------------------------------------------------------------------------------------------|
    E|---------------------------------------------------------------------------------------------|
Compositor não encontrado.
Colaboração e revisão:
  • Rafael Bispo
27.219 exibições
    • ½ Tom
    • A
    • Bb
    • B
    • C
    • Db
    • D
    • Eb
    • E
    • F
    • F#
    • G
    • Ab
  • Adicionar à lista

    0 comentários

    Ver todos os comentários

    Conseguiu tocar?

    7 Tocaram 1 Ainda não

    Grave um vídeo tocando Partiu e nos envie!

    00:00 / 00:00
    Outros vídeos desta música
    Repetir Qualidade Automático
    Outros vídeos desta música
    00:00 / 00:00
    Automático

    Cifra Club Pro

    Aproveite o Cifra Club com benefícios exclusivos e sem anúncios
    Cifra Club Pro
    Aproveite o Cifra Club com benefícios exclusivos e sem anúncios
    OK