Cifra Club

Vem Me Socorrer

Palavrantiga

Cifra: Principal
exibições 426.111
Tom: E
E
Não tenho um tom
Não tenho palavras
                                         C#m
Não tenho um acorde que me socorra agora
              C#m/B
Tudo foi embora
             A G F#m A   E
Só tenho você

E
Havia o silêncio que mostrou os meus vicios
                                         C#m
Me agarro contigo. Vem, me socorra agora
              C#m11/B
Tudo foi embora
            A    A    E
Só tenho você, Amor. Agora

A9                   B9     C#m
Essa não é mais uma canção de amor
            E
Não, não, não

Refrão:

                E
Eu Canto pra Ti
            G#m   A
Já sei onde estou
            F#m        A     B        C#m
Olhando pra mim posso saber que nada sou
              E                     G#m    A
Eu grito pra Ti. Oh Deus, vem me socorrer
            F#m        A     B          A
Olhando pra mim posso saber que nada posso fazer

E|--------------------5-4-----|
B|--5-5/7-9--------5----------|
G|------------6---------------|
D|--2-2/4-6-------------------|
A|------------4---------------|
E|----------------------------|

E|--------------------5-4-----|
B|--5-5/7-9--------5----------|
G|------------6---------------|
D|--2-2/4-6-------------------|
A|------------4---------------|
E|----------------------------|

( E   A   F#m  )

Final 2x:

E                    A        F#m
Oooh lalala        Oooh    lalala

0 comentários

    mostrar mais comentários

    Conseguiu tocar?

    64tocaram4ainda não

    Grave um vídeo tocando Vem Me Socorrer e mande pra gente!

    00:00 / 00:00
    outros vídeos desta música
    repetirqualidadeautomática
    Outro vídeos desta música
      00:00 / 00:00
      automática
      OK