Cifra Club

Aprenda

Desperta (Wake)

Pamela

Cifra: Principal (violão e guitarra)
tom: G
Intro: C  D  Bm  Em

E|------------------------------------|  3x
B|------------------------------------|
G|---------------7-7------------------| 
D|-7/9-9-9-7-9-9----------------------|
A|------------------10-10-9-9-7-7-----|
E|------------------------------------| 

E|------------------------------------| 
B|------------------------------------|
G|---------------7-7-9-9-12-12-13-13--| 
D|-7/9-9-9-7-9-9----------------------|
A|------------------------------------|
E|------------------------------------|

    C                     D
Ao despertar eu cantarei 
         Bm               Em
Teu nome eu proclamarei 
       C                   D
No ritmo do Teu coração 
     Bm       Em
Levarei salvação 
      C                             D

Teu fogo em meu olhar brilhando está 
        Bm             Em      
A chama não se apagará 
        C                 D
Nas ruas o amor refletirá 
       Bm               Em 
Tua glória resplandecerá 
       C                  D

Tu jamais me deixarás
       Bm              Em  
Em minha vida estás 
        C                D
Esse amor em meus ser 
       Bm          Em 
Pra sempre brilhará (2x)

Ponte 2x: C  D  Bm  Em
 
  C                           D
Vives em mim, vives em mim 
     Bm                    Em 
Em meu coração pra sempre 
       C                    D
Vives em mim, vives em mim 
      Bm                Em 
Em meu coração pra sempre 

E|------------------------------------|  
B|------------------------------------|
G|---------------7-7------------------|  3x
D|-7/9-9-9-7-9-9----------------------|
A|------------------10-10-9-9-7-7-----|
E|------------------------------------| 

E|------------------------------------| 
B|------------------------------------|
G|---------------7-7-9-9-12-12-13-13--| 
D|-7/9-9-9-7-9-9----------------------|
A|------------------------------------|
E|------------------------------------|

    C                           D
Teu fogo em meu olhar brilhando está 
    Bm                    Em
A chama não se apagará 
    C                    D
Nas ruas o amor refletirá
   Bm                Em  
Tua glória resplandecerá 

    C                D
Tu jamais me deixarás 
   Bm              Em 
Em minha vida estás 
     C                D
Esse amor em meus ser 
   Bm              Em 
Pra sempre brilhará (2x)

Ponte 2x:  C   D   Bm   Em

  C                        D
Vives em mim, vives em mim 
   Bm                       Em 
Em meu coração pra sempre
  C                       D
Vives em mim, vives em mim 
  Bm                         Em
Em meu coração pra sempre 

Passagem 2x:  C   D   Bm   Em  

   C                 D
Pra sempre, pra sempre 
    Bm              Em 
Pra sempre, nesse amor (3x)
    C                  D

Pra sempre, pra sempre 
     Bm              Em 
Pra sempre sim eu sei 
   C                  D
Tu jamais me deixarás 
    Bm             Em 
Em minha vida estás 
    C                  D
Esse amor em meus ser 
     Bm              Em 
Pra sempre brilhará (2x)

Passagem 2x:  C   D  Bm  Em 

  C                           D
Vives em mim, vives em mim 
    Bm                   Em 
Em meu coração pra sempre 
     C                     D
Vives em mim, vives em mim 
     Bm                   Em 
Em meu coração pra sempre (2x)

Final: Intro
Compositor não encontrado.
Colaboração e revisão:
  • André Trevisan
641 exibições
    • ½ Tom
    • A
    • Bb
    • B
    • C
    • Db
    • D
    • Eb
    • E
    • F
    • F#
    • G
    • Ab
  • Adicionar à lista

    0 comentários

    Ver todos os comentários

    Conseguiu tocar?

    0 Tocaram 0 Ainda não

    Grave um vídeo tocando Desperta (Wake) e nos envie!

    00:00 / 00:00
    Outros vídeos desta música
    Repetir Qualidade Automático
    Outros vídeos desta música
    00:00 / 00:00
    Automático

    Cifra Club Pro

    Aproveite o Cifra Club com benefícios exclusivos e sem anúncios
    Cifra Club Pro
    Aproveite o Cifra Club com benefícios exclusivos e sem anúncios
    OK