Cifra Club

That Green Gentleman

Panic! At The Disco

Cifra: Principal (violão e guitarra)
Tom: G
afinação: (D G C F A D)

C                                  F
Things are shaping up to be pretty odd.
C                        F
Little deaths in musical beds.
Am              G                  F
So it seems I'm someone I've never met.

C                                F
You will only hear these elegant crimes,
C                               F
Fall on your ears from criminal dimes.
Am           G                   F
They spill unfound from a pretty mouth.

Em
Everybody gets there and everybody gets their,
Dsus2
And Everybody gets their way

C / F / C / F

Am
I never said I missed her when everybody kissed her,
Dsus2
Now I'm the only one to blame.

C / F / G# / Bb

                           C    Em     F
Things have changed for me, and that's okay.
           Dsus2           G
I feel the same, I'm on my way, and I say.
C           Cadd9/B     Am
Things have changed for me, and that's okay.

C                           F
I want to go where everyone goes,
C                            F
I want to know what everyone knows
Am                 G                   F
I want to go where everyone feels the same

C                          F
I never said I'd leave the city,
C                           F
I never said I'd leave this town.
Am               G            F
A falling out we won't tiptoe about.

solo

  S E S E S E S E S
|----------------------|
|---8---8---8---8------|
|-9---9---9---9---9~----|
|----------------------|
|----------------------|
|----------------------|

  S S S S S S S S  S S S S S
|--------------------------------|
|-----8-----5--------------5-----|
|---5---5-7---7-5------5h7-------|
|-5----------------5h7-----------|
|--------------------------------|
|--------------------------------|

  S S S S S S S S   S S S S  S S S S S
|----------------------------------------|
|-----8-----5----------------------------|
|---5---5-7---7-5-------5-7--8-8-8-5-----|
|-5-----------------6-8--------------6~--|
|----------------------------------------|
|----------------------------------------|
exibições 36.631
Acordes para:
    Composição: Panic! At the Disco / Ryan Ross Colaboração e revisão:
    • Armando Pinheiro

    0 comentários

    mostrar mais comentários

    Conseguiu tocar?

    13 tocaram 0 ainda não

    Grave um vídeo tocando That Green Gentleman e mande pra gente!

    00:00 / 00:00
    outros vídeos desta música
    repetir qualidade Automático
    Outros vídeos desta música
    00:00 / 00:00
    Automático
    OK