Cifra Club

25 Years

Pantera

Cifra: Principal (violão e guitarra)
tom: A
join the death/black metal tab mailing list by emailing 
        


Date: Wed, 21 Jun 1995 21:45:33 -0500 (CDT)
From: Matt J Seifert 

"25 YEARS"
-tab by Matt Seifert (Darrell Ignore)

~=vibrato
(1/4)=bend guarter step up

tune down 1/2 step
riff #1
|-------------------------------------------------------------------------|
|-------------------------------------------------------------------------|
.-----------------------------5~------------------------------------------.
.-------------5-----7-5---5-7-----------------5---7-5--------2------------.
|---7-5---5-7---0(0)----7-----------7-5---5-7---0(0)-7-7-6-5-2------------|
|-0(0)--7-------------------------0-----7--------------5-4-3-0------------|
 repeat

      riff #2
-----|---------------------|------------------------------|
-----|---------------------|------------------------------|
*|
-(2)*(1/4)*|
-(2)-|--------------5(1/4)-|-2--2---2---2-----2-----2---2-|
-(0)-|-(pick slide)-5------|-0--0---0---0-----0-----0---0-|fill w/ riff#2  
      repeat
                             I vent my fru stration at you... 
fill #1     riff #3
|----------|---------------------------------|
|----------|---------------------------------|
.*.
.*.
|-----3-6--|---------------------------------|
|-0-5------|-0--000--13--0--000--1/13\1------|
    (1/4)          (1/4)     (1/4)(1/4)(1/4)
 2x's
             I vow, lest I die tomorrow, tommorow...we're fuckin you back

-riff #3 is played throughout rest of song, all notes besides open E's are
 1/4 step up, you can get the same effect by pushing the bridge down with
 your palm, that is if you have a floyd rose type system, when played right
 this riff kicks ass

-note during the 2nd verse the E power chords alternate the vocals
 (opposite riff #2)

-all riffs are here, order changes a little
00:00 / 00:00
Outros vídeos desta música
Repetir
Outros vídeos desta música
Composição de Pantera
2.451 exibições
    • ½ Tom
    • A
    • Bb
    • B
    • C
    • Db
    • D
    • Eb
    • E
    • F
    • F#
    • G
    • Ab
  • Adicionar à lista

    0 comentários

    Ver todos os comentários

    Conseguiu tocar?

    0 Tocaram 0 Ainda não

    Grave um vídeo tocando 25 Years e nos envie!

    Entre para oCifra Club PRO

    Tenha acesso a benefícios exclusivos no App e no Site

    • Chega de anúncios

    • Prioridade de compra em lançamentos

    • Mais recursos no app do Afinador

    • Atendimento Prioritário

    • Descontos nos produtos Cifra Club

    • Ajude a produzir mais conteúdo

    00:00 / 00:00

    Cifra Club Pro

    Aproveite o Cifra Club com benefícios exclusivos e sem anúncios
    Cifra Club Pro
    Aproveite o Cifra Club com benefícios exclusivos e sem anúncios
    OK