Enviar cifraEntrar

Cemetery Gates

Pantera

Cifra: Principal
exibições 150.829
Tom: F#
Intro Riff


    Fm4
E|------------------|-----------------|----------------|------0-----------|
B|----------2-------|------0--0-------|------0--0------|----2-----2-------|
G|--------2---2-----|----4------4-----|----4------4----|--4---------4-----|
D|------2-----------|--2--------------|--2----------0--|------------------|
A|----4----------0--|-----------------|----------------|------------------|
E|--2---------------|--------------0--|----------------|------------------|


E|------------------|-----------------|----------------|---------0--------|
B|----------2-------|------0--0-------|------0--0------|--2--------2------|
G|--------2---2-----|----4------4-----|----4------4----|----4--------4----|
D|------2-----------|--2--------------|--2----------0--|------0--------0--|
A|----4----------0--|-----------------|----------------|------------------|
E|--2---------------|--------------0--|----------------|------------------|


Riff 1


E|-12---11---10---9---12---11---10---9-|
B|-------------------------------------|
G|-------------------------------------|
D|-------------------------------------|
A|-------------------------------------|
E|-------------------------------------|


E|21--22b24r22--22b24r22--22b24--9--12-12b14-9-12b14--9-12b14-9-9/10--10/12--12/14--14/16--16/17~|
B|-----------------------------------------------------------------------------------------------|
G|-----------------------------------------------------------------------------------------------| { Final do
D|-----------------------------------------------------------------------------------------------|   Riff 1 }
A|-----------------------------------------------------------------------------------------------|
E|-----------------------------------------------------------------------------------------------|


Rhythm Fig 2 under guitar solo #1

E|--2--2-------2--------|--2--2--------2--------|
B|--5-----5-------5-----|--4-----4--------4-----|
G|--2--------2-------2--|--2--------2--------2--|
D|--2-------------------|--2--------------------|
A|--4-------------------|--4--------------------|
E|--2-------------------|--2--------------------|


         End of Rhythm Fig 2 under guitar solo #1

E|--2--2--------2--------|--2--2--------2--------|
B|--3-----3--------3-----|--2-----2--------2-----|
G|--2--------2--------2--|--2--------2--------2--|
D|--2--------------------|--2--------------------|
A|--4--------------------|--4--------------------|
E|--2--------------------|--2--------------------|


                 Fill #2 (Rhy Fig 3 Heavy Distortion)

E|----------------------------------------------|------------------------|
B|-----2h5---------------------------2----------|----------0-------------|
G|--2h4---------------------------2-------2-----|-------4---------4------|
D|------------------2--4-------2------------2---|----2---------------2---|
A|------------4--2----------4----------------0--|------------------------|
E|-----------------------2----------------------|---------------------0--|


E|----------------------|--------0------------|
B|--------0----4--------|-----2---------2-----|
G|-----4----------2--0--|--4---------------4--|
D|--2-------------------|---------------------|
A|----------------------|---------------------|
E|----------------------|---------------------|


E|-------------------------|------------------------|
B|--------------2----------|----------0-------------|
G|-----------2-----2-------|-------4----------4-----|
D|--------2----------2-----|----2---------------2---|
A|-----4---------------0---|------------------------|
E|--2----------------------|----------------------0-|


E|------------------------|---------0--------|
B|--------0---------------|--2--------2------|
G|-----4----------4-------|----4--------4----|
D|--2----------------2--0-|------0-----------|
A|------------------------|------------------|
E|------------------------|------------------|


Fill #1                                            End Fill #1

E|------0-------------0------|------------0-------------0-------|
B|------3-/-6---------5-/-7--|------------0-------------0-------|
G|--4---4-/-5---------6-/-7--|--7---------7-/-9---------9-/-11--|
D|-----------------0---------|--------0-------------0-----------|
A|---------------------------|----------------------------------|
E|---------------------------|----------------------------------|


 Fill #2 (Rhy Fig 3 Heavy Distortion)

E|-----------------------------|-------------------------|
B|-----------------------------|---4-0-------------------|
G|-----------------------------|-------------------------|
D|--2---2--2--2----------------|-------------------------|
A|--0---0--0--0---7-6-7-8--7-8-|-------------------------|
E|-----------------------------|-------------------------|

                  H.A             H.A       

End of Rhy Fig 3

E|-------------------------------------------------------|
B|-------------------------------------------------------|
G|-------------------------------------------------------|
D|--2---2--2--2------------------------------------------|
A|--0---0--0--0---7-6-7-8--7-8-6-7-----------------------|
E|---------------------------------7---------------------|

                  H.A            

  Rhy Fig 4                         End of Rhy Fig 4

E|--------------------------|-----------------------|
B|--------------------------|-----------------------|
G|--------------------------|-----------------------|
D|-----------2--2--2--2--4--|--4--4--4--5-----------|
A|--4--4--4--0--0--0--0--2--|--2--2--2--3-----2--3--|
E|--2--2--2-----------------|-----------------0--1--|
  • 1
  • 2
  • 3
  • 4
  • 5
  • 6
  • 7
  • 8
  • 9
  • 10
  • 11
  • 12
    Acordes para:
      Composição: PanteraColaboração e revisão:

      0 comentários

        mostrar mais comentários

        Conseguiu tocar?

        19tocaram1ainda não

        Grave um vídeo tocando Cemetery Gates e mande pra gente!

        00:00 / 00:00
        outros vídeos desta música
        repetirqualidadeautomática
        • automática
        Outro vídeos desta música
          00:00 / 00:00
          automática
          • automática
          Acordes para:violão e guitarra
          dificuldadeexibiçõescontribuições
          2 versões de Tab de baixoexibiçõescontribuições
          1 versão de Tab de bateriaexibiçõescontribuições
          fecharplay/pause subir/descer velocidade
            acordes
            fechar
            OK
            Feedback