Cifra Club

Cemetery Gates

Pantera

Cifra: Principal (violão e guitarra)
exibições 166.904
Tom: C#m
[Intro]

E|-----------------------------------------------0-------------------|
B|--------2-------------0-----------0----------2---2-----------------|
G|------2---2---------4---4-------4---4------4-------4---------------|
D|----4-------4-----2-------2---2-------2--0-------------------------|
A|--4-------------0--------------------------------------------------|
E|2---------------------------0--------------------------0-----------|

E|-------------------------------------------------0-----------------|
B|--------2-------------0-----------0--------2-------2---------------|
G|------2---2---------4---4-------4---4--------4-------4-------------|
D|----4-------4-----2-------2---2-------2--0-----0-------------------|
A|--4-------------0--------------------------------------------------|
E|2---------------------------0--------------------------------------|

E|2------------------------------------------------------------------|
B|3----3/5----5/7---7/9---9/10---------------------------------------|
G|2----4/6----6/7---7/9---9/11---------------------------------------|
D|0--0------0-----0-----0--------------------------------------------|
A|-------------------------------------------------------------------|
E|-------------------------------------------------------------------|

E|--2-----2-------2-----2-------2-----2-------2-----2----------------|
B|----5-----5-------4-----4-------3-----3-------2-----2--------------|
G|------2-----2-------2-----2-------2-----2-------2-----2------------|
D|4--------------4------------4-------------4------------------------|
A|-------------------------------------------------------------------|
E|-------------------------------------------------------------------|

E|--2-----2-------2-----2-------2-----2------------------------------|
B|----5-----5-------4-----4-------3-----3-----------5~---------------|
G|------2-----2-------2-----2-------2-----2-----4h6------------------|
D|4--------------4------------4---------------4----------------------|
A|----------------------------------------------------4p2h4----------|
E|-------------------------------------------------------------------|

E|-------------------------------------------------------------------|
B|--------2-------------0-----------0----------2-------2-------------|
G|------2---2---------4---4-------4---4----------4--------4----------|
D|----4-------4-----2-------2---2-------2--0-------0-----------------|
A|--4-------------0--------------------------------------------------|
E|2---------------------------0--------------------------------------|

E|---------------------------------------2---------------------------|
B|---------2-----------0-----------0-----3----3/5---5/7---7/9---9/10~|
G|-------2---2-------4---4-------4---4---2----4/6---6/7---7/9---9/11~|
D|-----4-------4---2-------2---2------2--0--0-----0-----0-----0------|
A|---4-----------0---------------------------------------------------|
E|-2-------------------------0---------------------------------------|

E|-----------------------------------------------------------------|
B|-----------10b12r10-----9b10~------12b14r12-----14b16------------|
G|x/9~-8~-7~--x--------6~-x-----x/9~--x--------8~--x------7~--6~---|
D|x----x--x---x--------x--x-----x-----x------------x---------------|
A|x----x--x---x--------x--x-----x-----x------------x---------------|
E|x----x--x---x--------x--x-----x-----x------------x---------------|

E|-------------------------------------------------------------9~--|
B|----------------------5b7r5~--5b7r5b7r5b7r5b7r5--5b7~r5~-1/5-----|
G|------4b6r4b6r4-2~----x-------x------------------x---------------|
D|-2/4~-x------------2~-x-------x------------------x---------------|
A|------x---------------x-------x------------------x---------------|
E|------x---------------x-------x------------------x---------------|

E|---7~-----9/10-7-10-10/12-9-12-12/14-10-14-14/16-10-14-14/16~----|
B|-5----5~---------------------------------------------------------|
G|-----------------------------------------------------------------|
D|-----------------------------------------------------------------|
A|-----------------------------------------------------------------|
E|-----------------------------------------------------------------|

E|--16~-16~-22~-22~--22/-------------------------------------------|
B|-----------x-----------------------------------------------------|
G|-----------x-----------------------------------------------------|
D|-----------x-----------------------------------------------------|
A|-----------x-----------------------------------------------------|
E|-----------x-----------------------------------------------------|

[Riff 1]

E|------------------------------------------------------------------|
B|------------------------------------------------------------------|
G|------------------------------------------------------------------|
D|2-2-2-2-2------------------ha9r7------2-2-2-2-2-------------------|
A|0-0-0-0-0--3/7h6-7-ha8-6-7-------7-8--0-0-0-0-0--3/7-6-7-ha8~-----|
E|------------------------------------------------------------------|

E|------------------------------------------------------------------|
B|------------------------------------------------------------------|
G|------------------------------------------------------------------|
D|---------------2-2-2-2-2-------------------ha9r7------2-2-2-2-2---|
A|-6-7---6-------0-0-0-0-0--3/7h6-7-ha8-6-7--------7-8--0-0-0-0-0---|
E|-----8---ha7~-----------------------------------------------------|

E|------------------------------------------------------------------|
B|------------------------------------------------------------------|
G|------------------------------------------------------------------|
D|------------------------------------------------------------------|
A|--3/7-6-7-ha8-6-7-------------------------------------------------|
E|-------------------ha8--------------------------------------------|

[Riff 2]

E|-----------------------------------------------------------------|
B|-----------------------------------------------------------------|
G|-----------------------------------------------------------------|
D|-4-------2--2------2----------2--7-7-----4------2--2-------2-----|
A|-4--2h4-----0--2h4----2--2h4-----5-4--2--4--2h4----0--2h4-----2--|
E|-2--------------------0---------------0--2--------------------0--|

E|-----------------------------------------------------------------|
B|-----------------------------------------------------------------|
G|-----------------------------------------------------------------|
D|-----2--7-7--7-7--4------2--2------2---------2--7-7--7--4--------|
A|-2h4----5-5--4-4--4--2h4----0--2h4----2--2h4----5-5--4--4--------|
E|------------------2-------------------0-----------------2--------|

E|-----------------------------------------------------------------|
B|-----------------------------------------------------------------|
G|-----------------------------------------------------------------|
D|------2--2------2---------2--PM7-PM7-PM7--PM7-PM7----------------|
A|--2h4----0--2h4----2--2h4----PM5-PM5-PM5--PM4-PM4--2--2----------|
E|-------------------0-------------------------------0--0----------|

E|-----------------------------------------------------------------|
B|-----------------------------------------------------------------|
G|-----------------------------------------------------------------|
D|2-2-2-2-2-------------------ha9r7------2-2-2-2-2-----------------|
A|0-0-0-0-0--3/7p6-7-ha8~-6-7-------7h8/-0-0-0-0-0--3/7p6-7-ha8~---|
E|-----------------------------------------------------------------|

E|-----------------------------------------------------------------|
B|-----------------------------------------------------------------|
G|-----------------------------------------------------------------|
D|-------------2-2-2-2-2-------------------ha9r10-------2-2-2-2-2--|
A|-6-7---6-----0-0-0-0-0--3/7p6h7-ha8~-6-7--------6h7/--0-0-0-0-0--|
E|-----8---7~------------------------------------------------------|

E|-----------------------------------------------------------------|
B|-----------------------------------------------------------------|
G|-----------------------------------------------------------------|
D|-----------------------------------------------------------------|
A|--3/7-6-7-ha8~-6-7---6-------------------------------------------|
E|-------------------8---7b8~--------------------------------------|

[Solo]

E|---------------------5---5-4~-----9----9/-----12----10--10p9----9-|
B|3p2h3h5-5/7p5p3/2~-2---2------2/5---5-----5/9----9-----------12---|
G|x-----------------------------------------------------------------|
D|x-----------------------------------------------------------------|
A|x-----------------------------------------------------------------|
E|x-----------------------------------------------------------------|

E|-----------------------7---7------7-------------------------------|
B|10~-10-9-8-7-6--5-6-7~---7---7b9~---7b9-8b10-5~-------------------|
G|-----x------------------------------------------------------------|
D|-----x------------------------------------------------------------|
A|-----x------------------------------------------------------------|
E|-----x------------------------------------------------------------|

E|---------------9h10h12p10p9h12p9--12/14p12p10h14p10---------------|
B|-------9h10h12----------------------------------------------------|
G|7h9h11------------------------------------------------------------|
D|------------------------------------------------------------------|
A|------------------------------------------------------------------|
E|------------------------------------------------------------------|

E|-14/16p14p12h16p12--16/17p16p14h17p14--17/21p17----17-------------|
B|------------------------------------------------19----19~---------|
G|------------------------------------------------------------------|
D|------------------------------------------------------------------|
A|------------------------------------------------------------------|
E|------------------------------------------------------------------|

e|16/19p16----16----------------------------------------------------|
B|---------17----17~------------------------------------------------|
G|------------------------------------------------------------------|
D|------------------------------------------------------13-14-15-16-|
A|------------------------------11-12-13-14--14-15-16-17------------|
E|------------------12-13-14-15-------------------------------------|

E|------------------------------------------------------------------|
B|14---------14--------14/------------------------------------------|
G|14---------14--------14/------------------------------------------|
D|---16--16------16-16----------------------------------------------|
A|------------------------------------------------------------------|
E|------------------------------------------------------------------|

E|---------14-----------------14--------------14------------14------|
B|------14----17p14--------14----17p14------14--17p14-----14--17p14-|
G|16b18--------------16b18-------------16b18---------16b18----------|
D|------------------------------------------------------------------|
A|------------------------------------------------------------------|
E|------------------------------------------------------------------|

E|-------14-------14--------21p14-14-21p14-14-21p14-----------------|
B|-17b19----17b19----17b19~-----------------------------------------|
G|--x---------------------------------------------------------------|
D|--x---------------------------------------------------------------|
A|--x---------------------------------------------------------------|
E|--x---------------------------------------------------------------|

E|20p14-14-20p14-14-20p14----17-19-20p19p17---17-19-20p19p17---17---|
B|------------------------19---------------19----------------19--19~|
G|------------------------------------------------------------------|
D|------------------------------------------------------------------|
A|------------------------------------------------------------------|
E|------------------------------------------------------------------|

E|--14h16h17p16p14----14h17h19p17p14----14h17p14h17p14----14--------|
B|17---------------17----------------17----------------17-----------|
G|------------------------------------------------------------------|
D|------------------------------------------------------------------|
A|------------------------------------------------------------------|
E|------------------------------------------------------------------|

E|------------------------------------------------------------------|
B|17p14h17p14----14h15p14h15p14-------------------------------------|
G|------------17-----------------17p16p14h16p14----14b15------------|
D|----------------------------------------------16-------16~--------|
A|------------------------------------------------------------------|
E|------------------------------------------------------------------|

E|------------------------------------------------------------------|
B|------------------------------------------------------------------|
G|13h14p13p11---12h13p12p10---11h12p11p9---10h11p10p8---------------|
D|-----------14------------13-----------12-----------11-------------|
A|------------------------------------------------------------------|
E|------------------------------------------------------------------|

E|------------------------------------------------------------------|
B|------------------------------------------------------------------|
G|9h10p9p7----8h9p8p6----7h8p7p5----6h7p6p4----4bha-(alavanca)------|
D|--------h10---------h9---------h8---------h7----------------------|
A|------------------------------------------------------------------|
E|------------------------------------------------------------------|

[Riff 3] F#5  A5  B5  C5  E5  F5
         F#5  A5  B5  C5  B5  A5
         F#5  A5  B5  C5  E5  F5
         F#5  A5  B5  C5  B5  G#5  C5  B5  G#5

E|------------------------------------------------------------------|
B|------------------------------------------------------------------|
G|------------------------------------------------------------------|
D|------------------------------------------------------------------|
A|------------------------------------------------------------------|
E|------------------------------------------------------------------|

[Final]

E|------------------------------------------------------------------|
B|------------------------------------------------------------------|
G|------------------------------------------------------------------|
D|2-2-2-2-2---------------------2-2-2-2-2-----------------9~--------|
A|0-0-0-0-0--3/7p6h7-ha8~-------0-0-0-0-0--3/7p6h7-ha8p7------------|
E|-------------------------12/--------------------------------------|

E|------------------------------------------------------------------|
B|------------------------------------------------------------------|
G|------------------------------------------------------------------|
D|2-2-2-2-2---------------------2-2-2-2-2-------------2--------2----|
A|0-0-0-0-0--3/7p6h7-ha8~-------0-0-0-0-0--3/7-6-ha7--0--2--3--0----|
E|-------------------------12/---------------------------0--1-------|

E|------------------------------------------------------------------|
B|------------------------------------------------------------------|
G|------------------------------------------------------------------|
D|-------2-2--------2-2---------------------------------------------|
A|-2--3--0-0--2--3--0-0--2--3--4-4----------------------------------|
E|-0--1-------0--1-------0--1--2-2/---------------------------------|

E|------------------------------------------------------------------|
B|------------------------------------------------------------------|
G|ha4-ha3-ha3-ha2---------------------------------------------------|
D|------------------------------------------------------------------|
A|------------------------------------------------------------------|
E|------------------------------------------------------------------|
Acordes para:

    0 comentários

      mostrar mais comentários

      Conseguiu tocar?

      20tocaram4ainda não

      Grave um vídeo tocando Cemetery Gates e mande pra gente!

      00:00 / 00:00
      outros vídeos desta música
      repetirqualidadeAutomático
      Outro vídeos desta música
        00:00 / 00:00
        OK