Enviar cifraEntrar

Cowboys From Hell

Pantera

Cifra: Principal
exibições 206.495
Tom: F
(Riff 1)
Introdução - Parte 1 de

---------------------------------------------------
---------------------------------------------------
---------------------------------------------------
---------------------------------------------------
---------------------------------------------------
-0-0-0-0-0-0-0-0-0-0-0-0-0-0-0-0-0-0-0-0-0-0-0-0---

p.m.............................................---

Introdução - Parte 2 de


---------------------------------------------------
---------------------------------------------------
---------------------------------------------------
---------------------------------------------------
---------------------------------------------------
-0-0-0-0-0-0-0-------------------------------------

p.m...........

Introdução - Riff 1 - Parte 1 de 2

---------------------------------------------------
---------------------------------------------------
-----------------------------5---------------------
---5---5-7-5-7-5-8-5-7-5-8/9-----------------------
-7---7---------------------------------------------
---------------------------------------------------

p.m.....................

Introdução - Riff 1 - Parte 1 de 2


---------------------------------------------------
---------------------------------------------------
---------------------------------------------------
---5---5-7-5-7-5-8p7p5-----------------------------
-7---7-----------------7---------------------------
---------------------------------------------------

p.m.............


(Riff 2)
Introdução - Riff 2 - Parte 1 de 2

---------------------------------------------------
---------------------------------------------------
---------------------------------------------------
---------------------------------------------------
-------------------------------5-------------------
-0-3-0-3-5-3-5-3-6-3-5-3---6/7---------------------

p.m.............................................

Introdução - Riff 2 - Parte 2 de 2

---------------------------------------------------
---------------------------------------------------
---------------------------------------------------
---------------------------------------------------
---------------------------------------------------
-0-3-0-3-5-3-5-3-6-5-3-0---------------------------

p.m.....................


(Riff 3)
Primeira Parte - Riff 3 - Parte 1 de

---------------------------------------------------
---------------------------------------------------
---------------------------------------------------
----------------------0----------------------------
----------------0h1h2------------------------------
-0-0-0-0-0-0-0-------------------------------------

 ..............

Primeira Parte - Riff 3 - Parte 1 de 3

---------------------------------------------------
---------------------------------------------------
---------------------------------------------------
--------------------0--------0---------------------
--------------0h1h2----0h1h2-----------------------
-0--0-0-0-0----------------------------------------

  .........

Primeira Parte - Riff 3 - Parte 2 de 3

---------------------------------------------------
---------------------------------------------------
---------------------------------------------------
---------------------0-----------------------------
---------------0h1h2-------------0h1p0-----0h1p0---
-0-0-0-0-0-0-0---------0-0-0-0-0-------3-3------3-1

 .............         .........

Primeira Parte - Riff 3 - Parte 3 de 3



---------------------------------------------------
---------------------------------------------------
---------------------------------------------------
------------------------------------------------0--
-----------------------------------------0h1h2-----
-0-0-0-0-0-0-0-0-0-0-----0-0-0-0-0-0-0-------------

 ...................     .............

(Primeira Parte)
Oww come on!
Under the lights where we stand tall
Nobody touches us at all
Showdown, shootout, spread fear within, without
We're gonna take what's ours to have
Spread the word throughout the land
They say the bad guys wear black
We're tagged and can't turn back
(Riff 4)
Primeira Parte - Riff 4 - Parte 1 de 3

---------------------------------------------------
---------------------------------------------------
---------------------------------------------------
------------------------------------------------0--
-----------------------------------------0h1h2-----
-0-0-0-0-0-0-0-0-0-0-----0-0-0-0-0-0-0-------------

 ...................     .............

Primeira Parte - Riff 4 - Parte 2 de 3

---------------------------------------------------
---------------------------------------------------
---------------------------------------------------
---------------------------------------------------
------------------------------------0h1p0----------
-0-0-0-0-0-0-0-0-0-0--0-0-0-0-0--------------------

 ..............................

Primeira Parte - Riff 4 - Parte 3 de 3

---------------------------------------------------
---------------------------------------------------
---------------------------------------------------
---------------------------------------------------
-----0h1p0-----------------------------------------
-3-3-------3-1-------------------------------------


(Segunda Parte)
G5
   You see us coming
G#5     G5            A#5 A5  G#5
And you all together run for cover
We're taking over this town

(Riff 5)
Segunda Parte - Riff 5 - Parte 1 de 3

---------------------------------------------------
---------------------------------------------------
---------------------------------------------------
---------------------------------------------------
-5-5-5-5-5-5-5-5-5-5-5-6--6------------------------
-3-3-3-3-3-3-3-3-3-3-3-4—-4------------------------

p.m...................

Segunda Parte - Riff 5 - Parte 2 de 3

---------------------------------------------------
---------------------------------------------------
---------------------------------------------------
---------------------------------------------------
-5-5-5-5-5-5-5-5-5-5-8--7--6-----------------------
-3-3-3-3-3-3-3-3-3-3-6--5--4-----------------------


p.m.................


Segunda Parte - Riff 5 - Parte 3 de 3


---------------------------------------------------
---------------------------------------------------
---------------------------------------------------
---------------------------------------------------
-------------------------------------1p0-----------
-0-0-0-0-0-0-0-0-0-0-0---0-0-0-0-0-------3-0-------


p.m...................   .........

(Refrão)
Here we come reach for your gun
And you better listen well my friend, you see
It's been slow down below,
Aimed at you we're the cowboys from hell
Deed is done again, we've won
Ain't talking no tall tales friend
Cause high noon, your doom
Coming for you we're the cowboys from hell

(Repete Riff 2)

(Riff 3)

(Primeira Parte com variação na letra)
Pillage the village, trash the scene
But better not take it out on me
Cause a ghost town is found
Where your city used to be
So out of the darkness and into the light
Sparks fly everywhere in sight
From my double barrel, 12 gauge,
Can't lock me in your cage

(Segunda Parte)
G5
   You see us coming
G#5     G5            A#5 A5  G#5
And you all together run for cover
We're taking over this town

(Repete Refrão)
Here we come reach for your gun
And you better listen well my friend, you see
It's been slow down below,
Aimed at you we're the cowboys from hell
Deed is done again, we've won
Ain't talking no tall tales friend
Cause high noon, your doom
                          G5 F#5   F5
Coming for you we're the cowboys from hell

(Solo)

E|--------------------------------------------------------|
B|--------------------------------------------------------|
G|---------------------------------15----15----15----15~--|
D|---------8---8---8~----/14~--/14----14----14----14------|
A|-7~--/7----7---7----------------------------------------|
E|--------------------------------------------------------|


E|-------------------------------------------------------------------------------------------|
B|-------------------------------------------------------------------------11-12-15-11h12h15-|
G|-------------------------------------------------------11-12-15-11h12h15-------------------|
D|-------------------------------------11-12-15-11h12h15-------------------------------------|
A|-------------------11-12-15-11h12h15-------------------------------------------------------|
E|-11-12-15-11h12h15-------------------------------------------------------------------------|


E|-11-12-15-12h15p12p11-15p12p11-15p12p11-15b18-----------|
B|--------------------------------------------------------|
G|--------------------------------------------------------|
D|--------------------------------------------------------|
A|--------------------------------------------------------|
E|--------------------------------------------------------|


E|-12-14-17p14p12--12-14-17p14p12--12-14-17p14p12--12-14-17p14p12-|
B|----------------------------------------------------------------|
G|----------------------------------------------------------------|
D|----------------------------------------------------------------|
A|----------------------------------------------------------------|
E|----------------------------------------------------------------|


E|-12-15-19-15p12h15p12-19/20-15p12h15p12-----------------------------------------------------------|
B|----------------------------------------19/20-15p12h15p12-----------------------------------------|
G|----------------------------------------------------------19/20-15p12h15p12-----------------------|
D|----------------------------------------------------------------------------19/20-15p12h15p12-14~-|
A|--------------------------------------------------------------------------------------------------|
E|--------------------------------------------------------------------------------------------------|


E|-------------------------------15--------------18--18--18b21---|
B|-------------------15b17r15b17----15b17~----/17--17--17--------|
G|----15--15--15~------------------------------------------------|
D|-/14--14--14---------------------------------------------------|
A|---------------------------------------------------------------|
E|---------------------------------------------------------------|


E|------------------------------------------------------------------------------------------------|
B|-----12----------------12----------------12----------------12-----------------12--12--14p12-----|
G|-/14----15-14-12-14-15----15-14-12-14-15----15-14-12-14-15----15-14-12-14-15--12--12--14p12-----|
D|--------------------------------------------------------------------------------14----------14~-|
A|------------------------------------------------------------------------------------------------|
E|------------------------------------------------------------------------------------------------|


E|-14b15--12-14------12-15------12-14------12---------------------|
B|-------------15b17------15b17------15b17---14b15r14p12----------|
G|------------------------------------------------------14p12-14~-|
D|----------------------------------------------------------------|
A|----------------------------------------------------------------|
E|----------------------------------------------------------------|


E|------15------19------20---21---22b24~------------------|
B|-11/12---12/15---15/17---18---19------------------------|
G|--------------------------------------------------------|
D|--------------------------------------------------------|
A|--------------------------------------------------------|
E|--------------------------------------------------------|


Parte Final - Riff 7

---------------------------------------------------
---------------------------------------------------
---------------------------------------------------
---------------------------------------------------
-----------2-2-1-1-0-------------------------------
-0-0-0-0-0-----------3-0---------------------------


(Riff 6)
Terceira Parte - Riff 6 - Parte 1 de 5
H.A.                 .                      .

---------------------------------------------------
---------------------------------------------------
---------------------------------------------------
---------------------5~---------------------7------
-7p5-----7p5-----7p5----7p5-----7p5-----7p5--------
-----0-0-----0-0------------0-0-----0-0------------

     ...     ...            ...     ...     ...

Terceira Parte - Riff 6 - Parte 1 de 5 (Variação)
H.A.                 .                      .

---------------------------------------------------
---------------------------------------------------
---------------------------------------------------
-------------------------5~-----------------------7
-7p5-------7p5-------7p5---7p5-------7p5-------7p5-
-----0-0-0-----0-0-0-----------0-0-0-----0-0-0-----


Terceira Parte - Riff 6 - Parte 2 de 5
H.A.                  .


---------------------------------------------------
---------------------------------------------------
---------------------------------------------------
----------------------5----------------------------
--7p5-----7p5-----7p5------------------------------
------0-0-----0-0----------------------------------


Terceira Parte - Riff 6 - Parte 3 de 5

---------------------------------------------------
---------------------------------------------------
-----14\12----12\11----11\9----9\7----7\6----------
-----------14-------12------11------9-----7--------
---------------------------------------------------
-0-0-----------------------------------------------


Terceira Parte - Riff 6 - Parte 4 de 5

---------------------------------------------------
---------------------------------------------------
-----14\12----12\11----11\9----9\7----7\6----------
-----------14-------12------11------9-----7--------
---------------------------------------------------
-0-0-----------------------------------------------


Terceira Parte - Riff 6 - Parte 5 de 5

-----17\15----15\14----14\12----12\10----10\9------
-----------17-------15-------14-------12------10---
---------------------------------------------------
---------------------------------------------------
---------------------------------------------------
-0-0-----------------------------------------------


(Repete Riff 1)

(Repete Refrão)
Here we come reach for your gun
And you better listen well my friend, you see
It's been slow down below,
Aimed at you we're the cowboys from hell
Deed is done again, we've won
Ain't talking no tall tales friend
Cause high noon, your doom
Coming for you we're the cowboys from hell

Step aside for the cowboys from hell!

(Repete Riff 6)

(Riff 7)
Parte Final - Riff 7

---------------------------------------------------
---------------------------------------------------
---------------------------------------------------
---------------------------------------------------
-----------2-2-1-1-0-------------------------------
-0-0-0-0-0-----------3-0---------------------------
  • 1
  • 2
  • 3
  • 4
  • 5
  • 6
  • 7
  • 8
  • 9
  • 10
  • 11
  • 12
    Acordes para:
      Colaboração e revisão:
      • WESLEI AUGUSTO LOPES
      • tarsiuslima
      • Monkey

      0 comentários

        mostrar mais comentários

        Conseguiu tocar?

        43tocaram0ainda não

        Grave um vídeo tocando Cowboys From Hell e mande pra gente!

        00:00 / 00:00
        outros vídeos desta música
        repetirqualidadeautomática
        • automática
        Outro vídeos desta música
          Capítulos
          • Início
          • Tocando a música
          • Configuração dos Efeitos
          • Tocando Introdução e Primeira Parte
          • Ensinando Riff 1
          • Ensinando Riff 2
          • Ensinando Riff 3
          • Ensinando Riff 4
          • Ensinando Riff 5
          • Tocando Repetições
          • Tocando Solo e Final
          • Ensinando Solo
          • Ensinando Riff 6
          • Ensinando Riff 7
          • Encerramento
          00:00 / 00:00
          automática
          • automática
          fecharplay/pause subir/descer velocidade
            acordes
            fechar
            OK
            Feedback