Cifra Club

Aprenda

Forever Tonight

Pantera

Cifra: Principal (violão e guitarra)
Já pensou em usar uma coleção de roupas do Cifra Club? Responda as perguntas abaixo e nos ajude nessa missão! →
tom: D
Riff 1:
E|-|---------------------------------------|
B|-|---6----6-5-------3-------5------------|
G|-|------------5-------3-------5----------|
D|-|-7---7--------5\3-----3/5-----5--------|
A|-|---------------------------------------|
E|-|---------------------------------------|

Riff 2:
E|-|---------------------------------------|
B|-|----------6--5-5----------6--5-5-------|
G|-|-----7-7--5--5-5-----7-7--5--5-5-------|
D|-|-----7-7--5--5-5-----7-7--5--5-5-------|
A|-|-----5-5---------[0]-5-5---------------|
E|-|---------------------------------------|

E|-|---------------------------------------|
B|-|----------6--5-5----------6--5-5-------|
G|-|-----3-3--5--5-5-----3-3--5--5-5-------|
D|-|-----3-3--5--5-5-----3-3--5--5-5-------|
A|-|-[0]-1-1---------[0]-1-1---------------|
E|-|---------------------------------------|

Riff 3:
E|-|----12b13r12----12---------------------|
B|-|-------------13----13----13-----\\-----|
G|-|-14-------------------12-(12)---\\-----|
D|-|---------------------------------------|
A|-|---------------------------------------|
E|-|---------------------------------------|

E|-|----12b13r12----12---------------------|
B|-|-------------13----13----13b15---------|
G|-|-14-------------------12---------------|
D|-|---------------------------------------|
A|-|---------------------------------------|
E|-|---------------------------------------|

Riff 4:
E|-|----------------------------------------------------|
B|-|----------------------------------------------------|
G|-|----------------------------------------------------|
D|-|----------------------------------------------------|
A|-|----3-5/7--5-7/8-7-8/10---8h10p8--12-12h13p12-10-\\-|
E|-|-3~-------------------------------------------------|

E|-|----------------------------------------------------|
B|-|----------------------------------------------------|
G|-|----------------------------------------------------|
D|-|----------------------------------------------------|
A|-|----3-5/7--5-7/8--7-8/10--8h10p8--------------------|
E|-|-3~-------------------------------------------------|

E|-|----------------------------------------------------|
B|-|----------------------------------------------------|
G|-|----------------------------------------------------|
D|-|----------------------------------------------------|
A|-|-12b13r12b13r12b13r12b13r12b13r12b13r12b13r12b13r12-|
E|-|----------------------------------------------------|

E|-|----------------------------------------------------|
B|-|----------------------------------------------------|
G|-|----------------------------------------------------|
D|-|----------------------------------------------------|
A|-|-12(17)---------------------------------------------|
E|-|---------\\-----------------------------------------|

Riff 5:
E|-|-----------------------------------------|
B|-|-----------------------------------------|
G|-|-77-777\-3-3-5-5-5-----------------------|
D|-|-77-777\-3-3-5-5-5-----------------------|
A|-|-55-555\-1-1-3-3-3-----------------------|
E|-|-----------.-.---------------------------|

Riff 6:
E|-|--------------------------------------------|
B|-|--------------------------------------------|
G|-|-*12b14~-*10b12-*10p9-10p9--/7\-------------|
D|-|--------------------------------------------|
A|-|--------------------------------------------|
E|-|--------------------------------------------|

E|-|--------------------------------------------|
B|-|-------------------------------------13p12~-|
G|-|-*12b14r12\-*10b12r10-10p9-*10p9--/7--------|
D|-|--------------------------------------------|
A|-|--------------------------------------------|
E|-|--------------------------------------------|

E|-|-15b17-15b17-(17)-17r15-17r15-17r15~b16r15--|
B|-|--------------------------------------------|
G|-|--------------------------------------------|
D|-|--------------------------------------------|
A|-|--------------------------------------------|
E|-|--------------------------------------------|

E|-|-13-12-13-12-12b14r12b13p12----12---13-12---|
B|-|----------------------------13--------------|
G|-|--------------------------------------------|
D|-|--------------------------------------------|
A|-|--------------------------------------------|
E|-|--------------------------------------------|

E|-|-13-12-13-12-12b14r12b13p12----12-12b15r12~-|
B|-|----------------------------13--------------|
G|-|--------------------------------------------|
D|-|--------------------------------------------|
A|-|--------------------------------------------|
E|-|--------------------------------------------|

E|-|-------20b22-------18b20-------17b18--------|
B|-|-20b22-------18b20-------17b18-------15b17--|
G|-|--------------------------------------------|
D|-|--------------------------------------------|
A|-|--------------------------------------------|
E|-|--------------------------------------------|

E|-|--------------------------------------------|
B|-|----------------------------------8-10------|
G|-|--------7------8----7-9----7-9-10-----------|
D|-|-\\8-10---8-10---10-----10------------------|
A|-|--------------------------------------------|
E|-|--------------------------------------------|

E|-|------------10-8-----20b23r20-18-16-15-13---|
B|-|----8-10-11------11-------------------------|
G|-|-10-----------------------------------------|
D|-|--------------------------------------------|
A|-|--------------------------------------------|
E|-|--------------------------------------------|

E|-|-15p13--------------------------------------|
B|-|-------15-13----13--------------------------|
G|-|-------------15----15-14-15-14-12----12-----|
D|-|----------------------------------15----15--|
A|-|--------------------------------------------|
E|-|--------------------------------------------|

E|-|--------------------------------------------|
B|-|--------------------------------------------|
G|-|--------------------------------------------|
D|-|-14-15-12b15r12b14r12b14r12~\---------------|
A|-|--------------------------------------------|
E|-|--------------------------------------------|





Compositor não encontrado.
Colaboração e revisão:
  • Tiago
490 exibições
    • ½ Tom
    • A
    • Bb
    • B
    • C
    • Db
    • D
    • Eb
    • E
    • F
    • F#
    • G
    • Ab
  • Adicionar à lista

    0 comentários

    Ver todos os comentários

    Conseguiu tocar?

    0 Tocaram 0 Ainda não

    Grave um vídeo tocando Forever Tonight e nos envie!

    00:00 / 00:00
    Outros vídeos desta música
    Repetir Qualidade Automático
    Outros vídeos desta música
    00:00 / 00:00
    Automático

    Cifra Club Pro

    Aproveite o Cifra Club com benefícios exclusivos e sem anúncios
    Cifra Club Pro
    Aproveite o Cifra Club com benefícios exclusivos e sem anúncios
    OK