Cifra Club

Aprenda

Fucking Hostile

Pantera

Cifra: Principal (violão e guitarra)
Já pensou em usar uma coleção de roupas do Cifra Club? Responda as perguntas abaixo e nos ajude nessa missão! →
tom: G
Verso: 
e||----------------------|--------------------|--------------------|
B||----------------------|--------------------|--------------------|
G||----------------------|--------------------|--------------------|
D||o---*-----------------|--------------------|--------------------|
A||o--5----------------5/|/7----------------5/|/7----------------5/|
E||---3-5-55-5-5-55-55-3/|/5-5-55-5-5-55-55-3/|/5-5-55-5-5-55-55-3/|
           pm-----------|  sl   pm-----------|  sl   pm-----------|  sl


                                        Repete 4x
e||---------------------|------------------||
B||---------------------|------------------||
G||---------------------|------------------||
D||---------------------|-------------5---o||
A||-/7------------------|-5---4---3---3---o||
E||-/5-5-55-5-5-55-55-5-|-3---2---1--------||
          pm-------------|        

Depois da quarta toque:
e|-------------------|
B|-------------------|
G|-------------------|
D|-----------7-----7-|
A|-----------------5-|
E|-5-55-5555---------|
      pm------|
 

Refão:
riff A                         |-1º-vez-----------------------------------|
                                                                          |
e||-------------------|-----|-----------------|-----------------------||
B||-------------------|-----|-----------------|-----------------------||
G||-------------------|-----|-----------------|-----------------------||
D||o--5-------------7-|--%--|-5---------------|-------------------7--o||
A||o--3-----x-5-----5-|-----|-3---x-5---5-7---|-------------------5--o||
E||---------x-3-------|-----|-----x-3-r-3-5---|-5555-5555-5555-55-----||
                                                  pm----------------|


 |--vez----------|
 |      end riff A-|Fucking hostile!
e|-----------------|-----||
B|-----------------|-----||
G|-----------------|-----||
D|-5---------------|PAUSA||
A|-3---x-5---5-7---|-----||
E|-----x-3-r-3-5-r-|-----||
                            
 |------repita-6x------|
                       |
e|---------------------||-------------------|------|
B|---------------------||-------------------|------|
G|---------------------||-------------------|------|
D|o-------------------o||-------------------|------|
A|o--2------5------5--o||-2------5------5\2-|-2----|
E|---0-00-0-3---00-3---||-0-00-0-3---00-3\2-|-0-r--|
       pm-|     pm        pm-|     pm

Volta tudo

Riff por traz do Solo

e||-----------------------|---------------------|-----|-----|--------------||
B||-----------------------|---------------------|-----|-----|--------------||
G||-----------------------|---------------------|-----|-----|--------------||
D||o----------------------|---------------------|--%--|--%--|----------5--o||
A||o--5-------------------|---------------------|-----|-----|-5--4--3--3--o||
E||---3-55-5555-5-55-5555-|-5-55-5555-5-55-5555-|-----|-----|-3--2--1------||

e|-------------------|
B|-------------------|
G|-------------------|
D|-----------------7-|
A|-----------7-----5-|
E|-5-55-5555-5-------|

                            |--vez-----------------------------------|
                                                                       |
e||-------------------|-----|-----------------|-----------------------||
B||-------------------|-----|-----------------|-----------------------||
G||-------------------|-----|-----------------|-----------------------||
D||o--5-------------7-|--%--|-5---------------|-------------------7--o||
A||o--3-----x-5-----5-|-----|-3---x-5---5-7---|-------------------5--o||
E||---------x-3-------|-----|-----x-3-r-3-5---|-5555-5555-5555-55-----||
                                                  pm----------------|

 |--vez----------|
e|-----------------|-----||
B|-----------------|-----||
G|-----------------|-----||
D|-5---------------|PAUSA||
A|-3---x-5---5-7---|-----||
E|-----x-3-r-3-5-r-|-----||
                            

 |-----Repete 6x-------|
 |                     |
e|---------------------||-------------------|------|
B|---------------------||-------------------|------|
G|---------------------||-------------------|------|
D|o-------------------o||-------------------|------|
A|o--2------5------5--o||-2------5------5\2-|-2----|
E|---0-00-0-3---00-3---||-0-00-0-3---00-3\2-|-0-r--|
       pm-|     pm        pm-|     pm

e|---------------|
B|---------------|
G|---------------|
D|---------------|
A|-----------11\-|
E|---------------|

Final:
e|--------------|-------------|--------------|--------------|-------------|
B|--------------|-------------|--------------|--------------|-------------|
G|--------------|-------------|--------------|--------------|-------------|
D|--------------|-------------|--------------|--------------|-------------|
A|----------5---|-6--7--------|----5--6--7---|----------4---|-5--6--7-----|
E|----------3---|-4--5--------|----3--4--5---|----------2---|-3--4--5-----|


SOLO:
e||-------------------------------------------------|-----|----------------|--
B||-------------------------------------------------|-----|-12-----14------|--
G||-12h14-14-14-14-14-14-14-12-14-14-14-14-14-14-14-|-----|-12-----14------|--
D||-------------------------------------------------|--%--|----------------|--
A||-------------------------------------------------|-----|----------------|--
E||-------------------------------------------------|-----|----------------|--
                         

e-|---------------|-17-20-17----19-17----20-19----20-17----|-19-17----20-17----
B-|-12-----14-----|----------20-------20-------20-------20-|-------20----------
G-|--------14-----|----------------------------------------|-------------------
D-|---------------|----------------------------------------|-------------------
A-|---------------|----------------------------------------|-------------------
E-|---------------|----------------------------------------|-------------------
                                                                              

e|----19-17----20-17----19-17----20-|-17----19-17----20--------------|---------
B|-20-------20-------20-------20----|----20-------20----20-20bvvvvvv-|---------
G|----------------------------------|--------------------------------|---------
D|----------------------------------|--------------------------------|---------
A|----------------------------------|--------------------------------|---------
E|----------------------------------|--------------------------------|---------
                                                                              

e|-----------------|-17---18-18-18-18-18-18-|-----|-----|----------------|--
B|-20b-----20b--20-|------------------------|-----|-----|-20bvvvvvvvvvvv-|--
G|-----------------|------------------------|-----|-----|----------------|--
D|-----------------|------------------------|--%--|--%--|----------------|--
A|-----------------|------------------------|-----|-----|----------------|--
E|-----------------|------------------------|-----|-----|----------------|--
                                                                              

e|-----------------|--------------|-----|----------------|----------------|--
B|-----------------|-13b-----8b---|-----|-13b-----8b-10b-|-10-------------|--
G|-----------------|-15b----10b---|-----|-15b----10b-12b-|-12-------------|--
D|-14vv------------|--------------|--%--|----------------|----------------|--
A|-12vvvv----------|--------------|-----|----------------|----------------|--
E|-----vvvv--------|--------------|-----|----------------|----------------|--
                                                                              

e|--------------|-----|-------------------|------------------------||--------
B|-13b-----8b---|-----|-13b-----8b--------|------------------------||--------
G|-15b----10b---|-----|-15b----10b----12b-|-12vvvvvvvv-------------||--------
D|--------------|--%--|-------------------|----------vvvvv---------||--------
A|--------------|-----|-------------------|--------------vvvvv-----||--------
E|--------------|-----|-------------------|------------------vvvvv-||--------

A barra da tablatura que estiver com o Sinal de porcento % quer
dizer pra repetir a ultima barra que tocou
Quando aparecer "o" quer dizer que é pra voltar na última 
sinalizacao de "o" que passou
Compositor não encontrado.
Colaboração e revisão:
  • Natan Henrique
13.351 exibições
    • ½ Tom
    • A
    • Bb
    • B
    • C
    • Db
    • D
    • Eb
    • E
    • F
    • F#
    • G
    • Ab
  • Adicionar à lista

    0 comentários

    Ver todos os comentários

    Conseguiu tocar?

    1 Tocaram 0 Ainda não

    Grave um vídeo tocando Fucking Hostile e nos envie!

    00:00 / 00:00
    Outros vídeos desta música
    Repetir Qualidade Automático
    Outros vídeos desta música
    00:00 / 00:00
    Automático

    Cifra Club Pro

    Aproveite o Cifra Club com benefícios exclusivos e sem anúncios
    Cifra Club Pro
    Aproveite o Cifra Club com benefícios exclusivos e sem anúncios
    OK