Cifra Club

Aprenda

Hard lines, sunken cheeks

Pantera

Cifra: Principal (violão e guitarra)
Já pensou em usar uma coleção de roupas do Cifra Club? Responda as perguntas abaixo e nos ajude nessa missão! →
tom: G
Tune down to C#

Intro:                                                 1st 2nd
|----------------------1------------------------------ --- ---|
|--------2--------2--3---0--------2------------------- --- ---|
|------0--------0---------------0----0--------0-----0- --- ---|
|----3--------2---------------2--------2----3-----2--- -4- ---|
|-----------------------------------------1-----3----- -3- ---|
|--0--------0---------------0------------------------- --- -3-|
          3 times                          Last time 
|---------------- -------------------- --- ----
|---------------- -------------------- --- ----
|---------------- -------------------- --- ----
|--------3~~4~~-- -------------------- --- ---- 
|--2--/5--------- -5--7-7-7--3--5-5-5- -3- -4--
|---------------- -3--5-5-5--1--3-3-3- -1- -2--

Verse is like..

|-----------     -------------------------|
|-----------     -------------------------|
|-----------     -------------------------|
|-----------     -------------------------|
|--3--2-2-2-     -------5--------5--3-5-3-|
|--1--0-0-0- etc -0-0-0-3--0-0-0-3--1-3-1-|

Chorus:

|-------------------------------------------------|
|--------6~--------------9~----------6~-----------|
|--4--4/-7~-----------4/-10~---4--4/-7~-----------|
|--4---------------------------4------------------|
|--2-----------4-4-4-----------2----------3--4--5-|
|-----------7-6-5-3-------10---------7-1--2--3-|

|----------------------------------------------|
|--------6~--------9~-------------6~-----------|
|--4--4/-7~-----4/-10~----4-4-4-4-7~-----------|
|--4----------------------4-4-4-4--------------|
|--2----------4-----------2-2-2-2------3--4--5-|
|----------7-2-------10-----------7-1--2--3-|

Interlude:
Lots of A.H throughout
|------------------------------------------|
|------------------------------------------|
|--------------------5b7r-----3------------|
|------4b-5-----4---------3b5---3-5--------|
|--3-6------3-2---6~~----------------3-----|
|--------------------------------------2-1-|

You´re on your own for the solo

In the end, play the Interlude with this...(Dimebag Darrel f**'s it up in the end) 
|-------------------
|-------------------
|-------------------
|--5--X-X-5--X--X-
|--3--X-X-5--X--X-
|--3--X-X-3--X--X-

Fade out
Compositor não encontrado.
Colaboração e revisão:
  • Rafael Silva
2.890 exibições
    • ½ Tom
    • A
    • Bb
    • B
    • C
    • Db
    • D
    • Eb
    • E
    • F
    • F#
    • G
    • Ab
  • Adicionar à lista

    0 comentários

    Ver todos os comentários

    Conseguiu tocar?

    0 Tocaram 0 Ainda não

    Grave um vídeo tocando Hard lines, sunken cheeks e nos envie!

    00:00 / 00:00
    Outros vídeos desta música
    Repetir Qualidade Automático
    Outros vídeos desta música
    00:00 / 00:00
    Automático

    Cifra Club Pro

    Aproveite o Cifra Club com benefícios exclusivos e sem anúncios
    Cifra Club Pro
    Aproveite o Cifra Club com benefícios exclusivos e sem anúncios
    OK