Cifra Club

Aprenda

Heavy Metal Rules

Pantera

Cifra: Principal (violão e guitarra)
Já pensou em usar uma coleção de roupas do Cifra Club? Responda as perguntas abaixo e nos ajude nessa missão! →
tom: E
TOCAR COM DISTORCAO!!

introducao: INTRO 1
     E5      E5       D5        E5      B5      C5       B5    C5    B5      C5    B5       D5
E|--------------------------------------------------------------------------------------------------
B|--------------------------------------------------------------------------------------------------
G|--------------------------------------------------------------------------------------------------
D|---9-------9--------7---------9--------4-------5-------4~~~~~~5~~~~~~4~~~~~~5~~~~~~4--------------
A|---7-------7--------5---------7--------2-------3-------2-~~~~~3~~~~~~2~~~~~~3~~~~~~2-------5------
E|-------------------------------------------------------------------------------------------3------
      INTRO2
      E5    E5       D5         E5      G5      D5
E|-----------------------------------------------------
B|-----------------------------------------------------
G|-----------------------------------------------------
D|----9-------9--------7---------9-------12------------
A|----7-------7--------5---------7-------10-----12-----
E|----------------------------------------------10-----

REPETE INTRO 1

INTRO 3
     E5      E5      D5        E5       G5       A5
E|------------------------------------------------------
B|------------------------------------------------------
G|------------------------------------------------------
D|----9--------9------7---------9--------12-------14----
A|----7--------7------5---------7--------10-------12----
E|------------------------------------------------------

REPETE TUDO

       E5
E|----------------
B|----------------
G|----------------
D|------9---------
A|------7---------
E|----------------

COMECA A CANTAR
PARTE 1
     E5        C5        D5           A5        G5       D5           
E|---------------------------------------------------------------
B|---------------------------------------------------------------
G|--------------------------------------------------------------- REPETE
D|----9----------5----------7-----------------------------7------
A|----7----------3----------5---------7---------5---------5------
E|------------------------------------5---------3----------------
PARTE 2
      B5      C5       D5
E|--------------------------------
B|--------------------------------
G|--------------------------------
D|-------------5---------7--------
A|-----9-------3---------5--------
E|-----7--------------------------

REPETE A INTRODUCAO

REPETE PARTE 1 E 2 DE QUANDO COMECA A CANTAR

REPETE A INTRODUCAO

AGORA VEM O SOLO E A BASE DO SOLO É A PARTE 1 E 2 DE QUANDO COMECA A CANTAR

REPETE A INTRODUCAO.


AEW!!!!! ACABOU!!!!
NUM CONSEGUI TIRA O SOLO AINDA
MAS TO PENSANDO EM PREVIDENCIAR
VALEU!!!!!

QUALQUER COISA::::
TICIApdg@HOTMAIL.COM
PATXUK_COBAIN@HOTMAIL.COM
Compositor não encontrado.
Colaboração e revisão:
  • patricia guimaraes
3.322 exibições
    • ½ Tom
    • A
    • Bb
    • B
    • C
    • Db
    • D
    • Eb
    • E
    • F
    • F#
    • G
    • Ab
  • Adicionar à lista

    0 comentários

    Ver todos os comentários

    Conseguiu tocar?

    3 Tocaram 0 Ainda não

    Grave um vídeo tocando Heavy Metal Rules e nos envie!

    00:00 / 00:00
    Outros vídeos desta música
    Repetir Qualidade Automático
    Outros vídeos desta música
    00:00 / 00:00
    Automático

    Cifra Club Pro

    Aproveite o Cifra Club com benefícios exclusivos e sem anúncios
    Cifra Club Pro
    Aproveite o Cifra Club com benefícios exclusivos e sem anúncios
    OK